Amen - Justified Chords & Tabs

 

Justified Chords & Tabs

Amen Chords & Tabs

Version: 1 Type: Bass Tab 0 ratings
1 star 2 stars 3 stars 4 stars 5 stars
comments

Justified Bass Tab

Amen
Justified
We Have Come For Your Parents
Tabbed by MattW

    G|-------------------------------------------------------|
    D|-------------------------------------------------------|
    A|-------5---------------------5-----3333-7777-----------|
    D|---0-0---343-0-110-x3----0-0---0-0---------------------|

    G|-------------------------------------------------------|
    D|-------------------------------------------------------|
    A|-------------------------------------------------------|
    D|---2---3----0----6-------------------------------------|
[ Tab from: http://www.guitartabs.cc/tabs/a/amen/justified_btab.html ]
    G|-------------------------------------------------------|
    D|-------------------------------------------------------|
    A|-------------------------------------------------------|
    D|---3-5-3-5-6-------------------------------------------|

    G|----------------------------------------------------------------|
    D|----------------------------------------------------------------|
    A|----------------------------------5-555555555555555555555555555-|
    D|---3-33333333333--2-222222222222--------------------------------|

    G|-------------------------------------------------------|
    D|-------------------------------------------------------|
    A|-------------------------------------------------------|
    D|---6-0--0-0-0-0-6-0------------------------------------|
Comments