Amen - Hello One Chord Lovers Chords & Tabs

 

Hello One Chord Lovers Chords & Tabs

Amen Chords & Tabs

Version: 2 Type: Tab 0 ratings
1 star 2 stars 3 stars 4 stars 5 stars
comments

Hello One Chord Lovers Tab

   
-------------------------------------------------------------------------------
			     Hello - AMEN
-------------------------------------------------------------------------------
Tabbed by: MattTheArsonist
Email: disturbedelf@msn.com

Tuning: Dropped D down a half step (Db,Ab,Db,Gb,Bb,eb) low to high

Intro Lead
eb|------|------0---------0---------0------------0-----------|
Bb|------|---------------------------------------x-----------|
Gb|-1/---|--7-7---7---7-7---7---7-7---7---7-7-/--5-----------|
Db|------|---------------------------------------------------|
Ab|------|---------------------------------------------------|
Eb|------|---------------------------------------------------|x4


Intro Rhythm (after the lead part)
eb|------------------------------------|
Bb|------------------------------------|
Gb|------------------------------------|
Db|--0---1---3-/--8--0---1---3-/--8----|
Ab|--0---1---3-/--8--0---1---3-/--8----|
Db|--0---1---3-/--8--0---1---3-/--8----|

Pre-Verse Guitar 1
eb|-------------------|   |-----------------------|
Bb|-------------------|   |-----------------------|
Gb|-------------------|   |-----------------------|
Db|-------------------|   |-----------------------|
Ab|-------------------|   |-----------------------|
Db|--3-0-0-0-0-0-0-0--|x3 |--3-0-0-0-3-0-0-0------|x1

Pre-Verse Guitar 2

eb|----------------------------|
Bb|----------------------------|
Gb|--2---4---5---7-------------|
Db|----------------------------|
Ab|----------------------------|
Db|----------------------------|
Listen to the Rhythm to get this down

Verse (Both Guitars)
[ Tab from: http://www.guitartabs.cc/tabs/a/amen/hello_one_chord_lovers_tab_ver_2.html ]
eb|-------------------------------------|
Bb|--------0-----------1---3/---8-------|
Gb|--0-----------0----------------------|
Db|-------------------------------------|
Ab|-------------------------------------|
Db|-------------------------------------|
The Verse is mostly bass & drums with occasional picks on the G and B strings

Pre-Chorus

eb|---------------------------------------------|
Bb|---------------------------------------------|
Gb|---------------------------------------------|
Db|---------8---------9---------10---------11---|
Ab|---------8---------9---------10---------11---|
Db|--0-0-0-----0-0-0-----0-0-0------0-0-0-------|x2

Chorus

eb|----------------------------------------|
Bb|----------------------------------------|
Gb|----------------------------------------|
Db|--0-0-0-0-0--7-7-7--8--8-8-8--5-5-5-5---|
Ab|--0-0-0-0-0--7-7-7--8--8-8-8--5-5-5-5---|
Db|--0-0-0-0-0--7-7-7--8--8-8-8--5-5-5-5---|

eb|-----------------------------------------|
Bb|-----------------------------------------|
Gb|-----------------------------------5-5---|
Db|--0-0-0-0-0--7-7-7--8--8-8-8--3-3--5-5---|
Ab|--0-0-0-0-0--7-7-7--8--8-8-8--3-3--3-3---|
Db|--0-0-0-0-0--7-7-7--8--8-8-8--3-3--------|

eb|---------------------------------------|
Bb|---------------------------------------|
Gb|---------------------------------------|
Db|--0-0-0-0-0--7-7-7--8--8-8-8-8-8-8-8---|
Ab|--0-0-0-0-0--7-7-7--8--8-8-8-8-8-8-8---|
Db|--0-0-0-0-0--7-7-7--8--8-8-8-8-8-8-8---|

eb|----------------------------------------|
Bb|----------------------------------------|
Gb|----------------------------------------|
Db|--0-0-0-0-0--1-1-1-1--3-3-3-3-3-3-3-3---|
Ab|--0-0-0-0-0--1-1-1-1--3-3-3-3-3-3-3-3---|
Db|--0-0-0-0-0--1-1-1-1--3-3-3-3-3-3-3-3---|



Pre-Verse
Verse
Pre-Chorus
Chorus
Interlude (I'll tab this later)
Chorusx2

This is a very awesome song and it's accurate 98% accurate. Refuse Amen!
Comments