Amen - Gun Of A Preacher Man Chords & Tabs

 

Gun Of A Preacher Man Chords & Tabs

Amen Chords & Tabs

Version: 1 Type: Tab 0 ratings
1 star 2 stars 3 stars 4 stars 5 stars
comments

Gun Of A Preacher Man Tab

   
Gun of a Preacher Man by Amen

Tabbed by OPAL (the_asscobra@hotmail.com)
if you put this tab any where please leave it as it is
and give me credit

Tuning: Drop D [D,A,D,G,b,e]
intro
e|----------------|
b|----------------|
G|----------------|
D|----------------|
A|-7-7-6----------|
D|-7-----7-7-6-5--|

Riff1:THIS IS THE START OF A MASSACRE!
e|-----------------------------------|
b|-----------------------------------|
G|-------V-------V-------V-----------|
D|-7-7-x-x-7-7-x-x-7-7-x-x-7-7/12\7--|
A|-7-7-x-x-7-7-x-x-7-7-x-x-7-7/12\7--|
D|-7-7-x-x-7-7-x-x-7-7-x-x-7-7/12\7--|

Riff2:
e|-------------------------------------|
b|-------------------------------------|
G|-------------------------------------|
D|-------5-5-------------5-5-----------|
A|-7-7-x-3-3-x-5-5-7-7-x-3-3-x-5-5-----|
D|-7-7-x-----x-5-5-7-7-x-----x-5-5-----|
[ Tab from: http://www.guitartabs.cc/tabs/a/amen/gun_of_a_preacher_man_tab.html ]
Riff3:
e|--------------------------------------------|
b|--------------------------------------------|
G|--------------------------------------------|
D|-----------5-555-----------------5-5555555--|
A|-7-7777777-3-333-5-555-7-7777777-3-3333333--|
D|-7-7777777-------5-555-7-7777777------------|

Break:
e|----------------------------------------------------------------------|
b|----------------------------------------------------------------------|
G|----------------------------------------------------------------------|
D|---14-14-----14-14-----14-14-----14-14-----15-15-----17-17-----18-18--|
A|-7-12-12-7-7-12-12-7-7-12-12-7-7-12-12-7-7-13-13-7-7-15-15-7-7-16-16--|
D|-7-------7-7-------7-7-------7-7-------7-7-------7-7-------7-7--------|

After Break:
e|---------------------------|
b|---------------------------|
G|---------------------------|
e|-5-5-5-55-5-5-4-4-4-2-2-2--|
b|-5-5-5-55-5-5-4-4-4-2-2-2--|
G|-5-5-5-55-5-5-4-4-4-2-2-2--|

all corrections will be gladly accepted
Comments