Amen - Everything Is Untrue Chords & Tabs

 

Everything Is Untrue Chords & Tabs

Amen Chords & Tabs

Version: 1 Type: Bass Tab 0 ratings
1 star 2 stars 3 stars 4 stars 5 stars
comments

Everything Is Untrue Bass Tab

   
Artist:amen
song:everything is untrue
tabbed by:methirus@hotmail.com
ALBUM:Faust soundtrack


These are all the different parts 

G-------------
D-------------
A-------------
E-2-0-2-0-3-0-
[ Tab from: http://www.guitartabs.cc/tabs/a/amen/everything_is_untrue_btab.html ]
before slow bit
G----------------------
D----------------------
A----------------------
E-2-1-0-2-1-0-2-0-3-0--

G--------------------------
D--------------------------
A--------------------------
E-1-0-2----2-----0------1--

G---------------------------------------------
D---------------------------------------------
A---------------------------------------------
E-3-3-3-3-3-4-4-4-4-4-4-8-8-8-8-8-1-1-1-1-1-1-
Comments