Amen - Coma America Chords & Tabs

 

Coma America Chords & Tabs

Amen Chords & Tabs

Version: 3 Type: Tab 0 ratings
1 star 2 stars 3 stars 4 stars 5 stars
comments

Coma America Tab

          Amen 'Coma America'
          Tuning: Dropped D (DADGBE)
          PM - Palm Mute
          HRM - Natural harmonics on given fret
          Intro
          
          |---------|
          |---------|
          |--8----7-|
          |--8----7-|
          |--6----5-|
          |---------|
          
          Pre-Chorus
          
          |---------------------|----------------------|
          |---------------------|----------------------|
          |--------8----------7-|-------10----------12-|
          |--------8----------7-|-0--0--10----0--0--12-|
          |--------6----------5-|-0--0---8----0--0--10-|
          |--0--0-------0--0----|-0--0--------0--0-----|
          
          Verse
          
           1 - 7	     8   
          |----------|------------| 
          |----------|------------|  The 3rd time the verse 
          |----------|------------|  is played in the song, 
          |--0--0--1-|-0--5--8--8-|  fool around with harmonics
          |--0--0--1-|-0--5--8--8-|  on the 2nd and 3rd fret
          |--0--0--1-|-0--5--8--8-|
          PM -  -  -
          
          Chorus
          
           Which time each part is played:
           1 2 3 5 6 7     4             8           
          |--------------|------------|------------|
          |--------------|------------|------------|
          |--------------|------------|------------|
          |--6--5--3--0--|-6--6--6--6-|-6--5--6--8-|
          |--6--5--3--0--|-6--6--6--6-|-6--5--6--8-|
          |--6--5--3--0--|-6--6--6--6-|-6--5--6--8-|
          HRM 		    -  -  -
          
          i think thats pretty much it i'm not sure whether there are extra parts for each guitar or 
                  if they play the same stuff
          
          John welsh  Wiggy_welsh@yahoo.co.uk
[ Tab from: http://www.guitartabs.cc/tabs/a/amen/coma_america_tab_ver_3.html ]
Comments