Amen - Coma America Chords & Tabs

 

Coma America Chords & Tabs

Amen Chords & Tabs

Version: 3 Type: Bass Tab 0 ratings
1 star 2 stars 3 stars 4 stars 5 stars
comments

Coma America Bass Tab

   
-------------------------------------------------------------------------------
			     COMA AMERICA - Amen
-------------------------------------------------------------------------------

The last tab for this song was completely wrong. This should patch things up at
best. It sounds good, but I wouldn't bet my life on it that it was completely correct...

Tuning: B,E,A,D,G
It can also be played on a 4-string in B,E,A,D

Intro/Verse
G|---------------------------------------------------------------------------|
D|---------------------------------------------------------------------------|
A|---------------------------------------------------------------------------|
E|---------------------------------------------------------------------------|
B|-3-3-----------------------------------------------------------------------|
[ Tab from: http://www.guitartabs.cc/tabs/a/amen/coma_america_btab_ver_3.html ]
Verse
G|---------------------------------------------------------------------------|
D|---------------------------------------------------------------------------|
A|---------------------------------------------------------------------------|
E|---------------------------------------------------------------------------|
B|-3-3-6-6-3-3-5-------------------------------------------------------------|

G|---------------------------------------------------------------------------|
D|---------------------------------------------------------------------------|
A|---------------------------------------------------------------------------|
E|-----2-2-------------------------------------------------------------------|
B|-3-3-----3-3-5-------------------------------------------------------------|
(Play this part every 4th time)

Play Riff #1 again when Casey is singing

Chorus
G|---------------------------------------------------------------------------|
D|---------------------------------------------------------------------------|
A|---------------------------------------------------------------------------|
E|-3-2-1-0-------------------------------------------------------------------|
B|---------------------------------------------------------------------------|
(Repeat over and over)
Comments