Amber Pacific - Poetically Pathetic Chords & Tabs

 

Poetically Pathetic Chords & Tabs

Amber Pacific Chords & Tabs

Version: 1 Type: Tab

Poetically Pathetic Tab

Guitar 1
e|----------------------------------------|
B|----------------------------------------|
G|------1-------1-------1-------1---------|
D|----3---3---3---3---3---3---3---3-------|
A|--4-------4-------4-------4-------------|
D|----------------------------------------|

Guitar 2

e|---------------------------------------------------|
B|---------------------------------------------------|
G|---------------------------------------------------|
D|-4-4-6-6-4-4-6-6-4-4-6-6-4-4-6-6-------------------|
A|-4-4-6-6-4-4-6-6-4-4-6-6-4-4-6-6-------------------|
D|-4-4-6-6-4-4-6-6-4-4-6-6-4-4-6-6-------------------|
[ Tab from: http://www.guitartabs.cc/tabs/a/amber_pacific/poetically_pathetic_tab.html ]
e|---------------------------------------------|
B|---------------------------------------------|
G|------------------------------------------6--|
D|-3-3-3-333-3-3--3-3-3-333-3-3--3333333333-x--|
A|-3-3-3-333-3-3--3-3-3-333-3-3--3333333333-4--|
D|-3-3-3-333-3-3--3-3-3-333-3-3--3333333333----|
PM . . . ... . .  . . . ... . .  ..........

Verse
e|--------------------------|
B|--------------------------|    These are the chords I can't really tab
G|-6---8---4----------------|    the strumming- it's easy to figure out.
D|-x---x---x----------------|    This goes until, "If time could stop..."
A|-4---6---2----------------|
D|--------------------------|


Well, there it is...I suppose it's a little more than intro. I'm not positive on the 
2 part but i think it's close. When I do the rest I'll put it up. If you figure any more 
feel free the e-mail me at dxcdfdfcv@yahoo.com