Amber Pacific - Gone So Young Chords & Tabs

 

Gone So Young Chords & Tabs

Amber Pacific Chords & Tabs

Version: 1 Type: Tab 0 ratings
1 star 2 stars 3 stars 4 stars 5 stars
comments

Gone So Young Tab

   
I think this is just about right.. i might have missed a few small things not too sure..
some of it was tricky to make out. I didn't show strumming either so just listen to the
song to figure it out.

               Gone So Young - Amber Pacific

			Intro G1 (Lead)
e :------------------------------------------------------|
B :---------------|----x2----|---------------------------|
G :-4~-8--6~-8-----11-9--8--6-----4~-8-6~-8-4~---------|
D :-x--x--x--x-----x--x--x--x-----x--x--x--x--x----------|
A :-2~-6--4~-6-----9--7--6--4-----2~-6-4~-6-2~---------|
D :------------------------------------------------------|

e :------------------------------------------------------|
B :------------------------------------------------------|
G :-6/8\6\4~\3/4~----------------------------------------|
D :-x-x-x-x--x-x-----------------------------------------|
A :-4/6\4\2~\1/2~----------------------------------------|
D :------------------------------------------------------|

			Intro G2 (Rhythm)
e :------------------------------------------------------|
B :------------------------------------------------------|
G :-444-----------------444------------------------------|
D :-444--444--222--444--444--444--222-4~----------------|
A :-222--444--222--444--222--444--222-4~----------------|
D :------444--222--444-------444--222-4~----------------|
_________________________________________________________

			Verse 1 G1
e :------------------------------------------------------|
B :--------Acoustic----------------|---------------------|
G :-4~------4~------444----------------------------------|
D :-4~--2~--4~--4~--444--222--44444----------------------|
A :-2~--2~--2~--4~--222--222--44444----------------------|
D :-----2~------4~-------222--44444----------------------|

			Verse 1 G2
e :------------------------------------------------------|
B :------------------------------------------------------|
G :-4~------4~---------444-------444---------------------|
D :-4~--2~--4~--4~-----444--222--444--444----------------|
A :-2~--2~--2~--4~-x2--222--222--222--444----------------|
D :-----2~------4~----------222-------444----------------|
		       ...  ...  ...  ...
e :------------------------------------------------------|
B :------------------------------------------------------|
G :-444--------------------------------------------------|
D :-444--222--4444444~-4444------------------------------|
A :-222--222--4444444~-4444------------------------------|
D :------222--4444444~-4444------------------------------|
    ...  ...  ......
_________________________________________________________

			Chorus 1 G1
e :------------------------------------------------------|
B :------------------------------------------------------|
G :-444-666-111111-444-888-666-444-6~--------------------|
D :-xxx-xxx-x-x-x--xxx-xxx-xxx-xxx-x---------------------|
A :-222-444-9-9-9--222-666-444-222-4~--------------------|
D :------------------------------------------------------|

			Chorus 1 G2
e :------------------------------------------------------|
B :------------------------------------------------------|
G :-444-----------------444------------------------------|
D :-444--444--666--222--444--444--666--4~--66666666------|
A :-222--444--666--222--222--444--666--4~--66666666------|
D :------444--666--222-------444--666--4~--66666666------|
					   .....
_________________________________________________________

			Verse 2 G1
    		comes in at "who sat through"
e :------------------------------------------------------|
B :------------------------------------------------------|
G :-8-8-8-8-11-11-11-11-4-4-4-4-3-3-3-3-8-8-8-8-11-11-11-|
D :------------------------------------------------------|
A :------------------------------------------------------|
D :------------------------------------------------------|

e :------------------------------------------------------|
B :------------------------------------------------------|
G :-11-3-3-3-3-------------------------------------------|
D :-------------4444-------------------------------------|
A :-------------4444-------------------------------------|
D :-------------4444-------------------------------------|

			Verse 2 G2
e :------------------------------------------------------|
B :------------------------------------------------------|
G :-444-------444-------444------------------------------|
D :-444--222--444--444--444--222--4444444----------------|
A :-222--222--222--444--222--222--4444444----------------|
D :------222-------444-------222--4444444----------------|
    ...  ...  ...  ...  ...  ...  .......
[ Tab from: http://www.guitartabs.cc/tabs/a/amber_pacific/gone_so_young_tab.html ]
e :------------------------------------------------------|
B :------------------------------------------------------|
G :-4-444---------4-444---------------4-444--------------|
D :-4-444--2-222--4-444--4-44-4-4444--4-444--2-222-------|
A :-2-222--2-222--2-222--4-44-4-4444--2-222--2-222-------|
D :--------2-222---------4-44-4-4444---------2-222-------|
      ...    ...    ...    ..   ....    ...    ...

e :------------------------------------------------------|
B :------------------------------------------------------|
G :------------------------------------------------------|
D :-4-444444---------------------------------------------|
A :-4-444444--------------------------------------------|
D :-4-444444---------------------------------------------|
      ....    <-gradually un mute
_________________________________________________________

			Chorus 2 G1
e :------------------------------------------------------|
B :------------------------------------------------------|
G :-444-666-111111-444-888-666-444-6~--------------------|
D :-xxx-xxx-x-x-x--xxx-xxx-xxx-xxx-x---------------------|
A :-222-444-9-9-9--222-666-444-222-4~--------------------|
D :------------------------------------------------------|

			Chorus 2 G2
e :------------------------------------------------------|
B :------------------------------------------------------|
G :-444-----------------444------------------------------|
D :-444--444--666--222--444--444--666--4444--------------|
A :-222--444--666--222--222--444--666--4444--------------|
D :------444--666--222-------444--666--4444--------------|
				       ....
_________________________________________________________

			Bridge pt 1 G1
e :------------------------------------------------------|
B :------------------------------------------------------|
G :-----------------------------444x-444x-44--44--44--44-|
D :---plays after G1-riff-------xxxx-xxxx-xx--xx--xx--xx-|
A :-----------------------------222x-222x-22--22--22--22-|
D :------------------------------------------------------|

e :------------------------------------------------------|
B :------------------------------------------------------|
G :-4~-8--6~--44-44-44-44--888-6~------------------------|
D :-x--x--x---xx-xx-xx-xx--xxx-x-------------------------|
A :-2~-6--4~--22-22-22-22--666-4~------------------------|
D :------------------------------------------------------|

			Bridge pt1 G2
e :---------------|--------------------------------------|
B :---------------|--------------------------------------|
G :-444x-444x-44--|-----------------------444-3----------|
D :-xxxx-xxxx-xx--|-66xx66xx-22xx22xx-----xxx-x----------|
A :-222x-222x-22--|-66xx66xx-22xx22xx-x2--222-1----------|
D :---------------|-66xx66xx-22xx22xx--------------------|

			Bridge pt2 G1
e :------------------------------------------------------|
B :------------------------------------------------------|
G :-444-----------------444------------------------------|
D :-444--444--666--222--444--444--22222---Acoustic-------|
A :-222--444--666--222--222--444--22222------------------|
D :------444--666--222-------444--22222------------------|

			Bridge pt2 G2
e :------------------------------------------------------|
B :------------------------------------------------------|
G :---------------------444------------------------------|
D :---------------------444--444--666--222---------------|
A :---------------------222--444--666--222---------------|
D :--------------------------444--666--222---------------|
			...  ...  ...  ..
_________________________________________________________

			Outro G1
e :------------------------------------------------------|
B :------------------------------------------------------|
G :-444-666-111111-444-888-666-444-6~--------------------|
D :-xxx-xxx-x-x-x--xxx-xxx-xxx-xxx-x---------------------|
A :-222-444-9-9-9--222-666-444-222-4~--------------------|
D :------------------------------------------------------|

e :------------------------------------------------------|
B :------------|----x2-----|-----------------------------|
G :-4~-8--6~-8--11-9--8--6---4~-8-6~-8-4~--------------|
D :-x--x--x--x--x--x--x--x---x--x--x--x--x---------------|
A :-2~-6--4~-6--9--7--6--4---2~-6-4~-6-2~--------------|
D :------------------------------------------------------|

e :------------------------------------------------------|
B :------------------------------------------------------|
G :-6/8\6\4~\3/4~---4x-----------------------------------|
D :-x-x-x-x--x-x----xx-----------------------------------|
A :-4/6\4\2~\1/2~---2x-----------------------------------|
D :------------------------------------------------------|

			Outro G2
e :------------------------------------------------------|
B :------------------------------------------------------|
G :-444-----------------444------------------4~------4x--|
D :-444--444--666--222--444--444--22222------x-------xx--|
A :-222--444--666--222--222--444--22222-x2---2~------2x--|
D :------444--666--222-------444-22222------------------|


Tabbed by: Kyle LeSouder
Comments