Amber Pacific - Always You Chords & Tabs

 

Always You Chords & Tabs

Amber Pacific Chords & Tabs

Version: 1 Type: Bass Tab 0 ratings
1 star 2 stars 3 stars 4 stars 5 stars
comments

Always You Bass Tab

Song - Always You
Artist - Amber Pacific
Album - Fading Days
Tabbed by - Daniel Cummins - dan_the_man_no1@hotmail.com

INTRO (come in at 0.15)
G|--------------------|
D|--------------------|
A|--------------------|
E|-2~2~2~~~-2-2-2-2-2-|

VERSE - X2
G|------------------------------------------------------------------|
D|------------------------------------------------------------------|
A|-1111111111111111----------------4444444444444444-----------------|
E|-----------------2222222222222222----------------4444444444444444-|

PRE CHORUS
G|-------------------------|
D|-------------------------|
A|-------------------------|
E|-222--222--222--222-2222-|

G|--------------------------------------------------------------------|
D|--------------------------------------------------------------------|
A|-----------------------------------4444444444444444-----------------|
E|-11-11-11-11-1111-22-22-22-22-2222-----------------4444444444444444-|

G|--------------------------------------------------------------------|
D|--------------------------------------------------------------------|
A|------------------11-11-11-11-1111----------------------------------|
E|-11-11-11-11-1111------------------22222222222222224444444444444444-|

CHORUS
G|-------------------------------------------------------------|
D|-------------------------------------------------------------|
A|-4-4-----11\-------------------------------------------------|
E|------------444444444444444466666666666666662222222222222222-|

G|------------------------------------------------------------------|
D|------------------------------------------------------------------|
A|-4444444444444444-------------------------------------------------|
E|-----------------444444444444444466666666666666662222222222222222-|

PRE VERSE
G|----------------------------|
D|-----------------4--4--4~~~-|
A|-4--4--4--4--4-4------------|
E|----------------------------|

VERSE X2
G|------------------------------------------------------------------|
D|------------------------------------------------------------------|
A|-1111111111111111----------------4444444444444444-----------------|
E|-----------------2222222222222222----------------4444444444444444-|

PRE CHORUS
G|-------------------------|
D|-------------------------|
A|-------------------------|
E|-222--222--222--222-2222-|

G|--------------------------------------------------------------------|
D|--------------------------------------------------------------------|
A|-----------------------------------4444444444444444-----------------|
E|-11-11-11-11-1111-22-22-22-22-2222-----------------4444444444444444-|
[ Tab from: http://www.guitartabs.cc/tabs/a/amber_pacific/always_you_btab.html ]
G|--------------------------------------------------------------------|
D|--------------------------------------------------------------------|
A|------------------11-11-11-11-1111----------------------------------|
E|-11-11-11-11-1111------------------22222222222222224444444444444444-|

CHORUS
G|-------------------------------------------------------------|
D|-------------------------------------------------------------|
A|-4-4-----11\-------------------------------------------------|
E|------------444444444444444466666666666666662222222222222222-|

G|------------------------------------------------------------------|
D|------------------------------------------------------------------|
A|-4444444444444444-------------------------------------------------|
E|-----------------444444444444444466666666666666662222222222222222-|

BRIDGE
G|--------------------------------------------------------------------|
D|--------------------------------------------------------------------|
A|-4~~~---------------11-111-1----------------------------------------|
E|-----22-222-222-222---------44-444-22222222222222224444444444444444-|

CHORUS
G|-------------------------------------------------------------|
D|-------------------------------------------------------------|
A|-4-4-----11\-------------------------------------------------|
E|------------444444444444444466666666666666662222222222222222-|

G|------------------------------------------------------------------|
D|------------------------------------------------------------------|
A|-4444444444444444-------------------------------------------------|
E|-----------------444444444444444466666666666666662222222222222222-|

G|------------------------------------------------------------------|
D|------------------------------------------------------------------|
A|-44444444444444446666666666666666---------------------------------|
E|---------------------------------66666666666666662222222222222222-|

G|------------------------------------------------------------------|
D|------------------------------------------------------------------|
A|-44444444444444446666666666666666---------------------------------|
E|---------------------------------66666666666666662222222222222222-|

OUTRO
G|------------------------------------------------------------------|
D|------------------------------------------------------------------|
A|-1111111111111111----------------4444444444444444-----------------|
E|-----------------2222222222222222----------------4444444444444444-|

G|------------------------|
D|------------------------|
A|-----------------4~~~~~-|
E|-2-2-2-2-2-2-2-2--------|

And there you go. Great song. Great tab(hopefully you'l think so 2).
plz rate and comment.
Dan.
Comments