Amazing Transparent Man - International Gamers Committee Chords & Tabs

 

International Gamers Committee Chords & Tabs

Amazing Transparent Man Chords & Tabs

Version: 1 Type: Tab 0 ratings
1 star 2 stars 3 stars 4 stars 5 stars
comments

International Gamers Committee Tab

   
Band: Amazing Transparent Man
Song: International Gamers Committee

Tuning: Standard


Intro/Main Riff
e|-------------------------------------------------------------------------|
B|-------------------------------------------------------------------------|
G|-------------------------------------------------------------------------|
D|-111111-5p4-4-6666-999-5p4-4/7-7777--121212-5p4-4-6666-999-9/12-11-------|
A|-------------------------------------------------------------------------|
E|-9-9-9-------------777---------------101010------------777-7/10-9--------|

[ Tab from: http://www.guitartabs.cc/tabs/a/amazing_transparent_man/international_gamers_committee_tab.html ]
Verse 1
e|---------------------------------------------------------------------------|
B|---------------------------------------------------------------------------|
G|-------------------------------------------------9p8h9-----9p8h9-----9p8h9-|
D|-1111--9-9--7-7--9-9--1111--9-9--77777777---1111-------9-9-------7-7-------|
A|-9-9---7-7--5-5--7-7--9-9---7-7--77777777---9-9--------7-7-------5-5-------|
E|-9-9---7-7--5-5--7-7--9-9---7-7--55555555---9-9--------7-7-------5-5-------|
                                  [palmmute]
...continued
e|-------------------------------------------------------------------------|
B|-------------------------------------------------------------------------|
G|-----8/9\8-------9p8h9-----9p8h9-----------------------------------------|
D|-9-9--------1111-------9-9-------77777777---9-9--------------------------|
A|-7-7--------9-9--------7-7-------77777777---7-7--------------------------|
E|-7-7--------9-9--------7-7-------55555555---7-7--------------------------|
                                  [palmmute] 

Chorus
e|-------------------------------------------------------------------------|
B|-------------------------------------------------------------------------|
G|-------------------------------------------------------------------------|
D|-11111111-99999999-12121212-14141414-11111111-99999999-7777777777777777--|
A|-11111111-99999999-12121212-14141414-11111111-99999999-7777777777777777--|
E|-99999999-77777777-10101010-12121212-99999999-77777777-5555555555555555--|

...continued
e|-------------------------------------------------------------------------|
B|-------------------------------------------------------------------------|
G|-------------------------------------------------------------------------|
D|-11111111-99999999-12121212-14141414-11---9---11---9---------------------|
A|-11111111-99999999-12121212-14141414-11---9---11---9---------------------|
E|-99999999-77777777-10101010-12121212-9----7---9----7---------------------|


Verse 2
e|-------------------------------------------------------------------------|
B|-------------------------------------------------------------------------|
G|-------------------------------------------------------------------------|
D|-11------11b-------------------------------------------------77777777-99-|
A|-9-------9b--777777777777--99--9999-7777-9999-7777-9999-7777-77777777-99-|
E|-9-------9b--555555555555--77--7777-5555-7777-5555-7777-5555-55555555-77-|
              [-----------------palm mute---------------------]
 


Key

h = hammer on
p = pull off
b = bend
/ = slide up
\ = slide down
Comments