Amazing Transparent Man - A Simple Retort Chords & Tabs

 

A Simple Retort Chords & Tabs

Amazing Transparent Man Chords & Tabs

Version: 1 Type: Tab 0 ratings
1 star 2 stars 3 stars 4 stars 5 stars
comments

A Simple Retort Tab

_____________________________________________________________________

Note:I found this band just looking around on the internet and I am
suprised there are no tabs for their songs. So I guess I'll do them.

Band: Amazing Transparent Man
Song: A Simple Retort
Album: The Measure of All Things
Label: Springman
Year: 2001
Genre: Pop-Punk with a twist

________________________________________
Tuning: Standard (low to high EADGBe)


Intro
e|-------------------------------------------------------------------------|
B|-------------------------------------------------------------------------|
G|-------------------------------------------------------------------------|
D|-5~------5---------------------------------------------------------------|
A|-5~------5---------------------------------------------------------------|
E|-3~------3---------------------------------------------------------------|


Preverse
e|-------------------------------------------------------------------------|
B|-------------------------------------------------------------------------|
G|-12121212-11111111-9999-7777--17-16-14-16-12~-12--12-11-12-9~-12-11-12-7~|
D|-------------------------------------------------------------------------|
A|-10101010-9-9-9-9--7777-5555--15-14-12-14-10~-10--10-9--10-7~-10-9--10-5~|
E|-------------------------------------------------------------------------|
[ Tab from: http://www.guitartabs.cc/tabs/a/amazing_transparent_man/a_simple_retort_tab.html ]
e|-------------------------------------------------------------------------|
B|-------------------------------------------------------------------------|
G|-17-16-14-16-12~-12------------------------------------------------------|
D|-------------------------------------------------------------------------|
A|-15-14-12-14-10~-10------------------------------------------------------|
E|-------------------------------------------------------------------------|


Verse
e|-------------------------------------------------------------------------|
B|-------------------------------------------------------------------------|
G|-------------------------------------------------------------------------|
D|-7-7777777777777777------------------------------------------------------|
A|-7-7777777777777777------------------------------------------------------|
E|-5-5555555555555555------------------------------------------------------|
    [---palm mute----]


Chorus
e|-------------------------------------------------------------------------|
B|-------------------------------------------------------------------------|
G|------9999-7777-9999-----------------------------------------------------|
D|-7777-9999-7777-9999-----------------------------------------------------|
A|-7777-7777-5555-7777-----------------------------------------------------|
E|-5555--------------------------------------------------------------------|


Song Order

intro 2x
preverse 1x
verse 4x
chorus 6x
preverse 1x
verse 4x
chorus 16x (approx.)
Comments