Aly And Aj - No One Chords & Tabs

 

No One Chords & Tabs

Aly And Aj Chords & Tabs

Version: 1 Type: Tab 0 ratings
1 star 2 stars 3 stars 4 stars 5 stars
comments

No One Tab

   
  Em9                         F#m(add b6)
e:-------------2p0----------|--------------2p0--------------------|
B:----------3------3p0------|-----------3-------3p0---------------|
G:-0------0-------------0---|--0------2--------------0------------|
D:------4-------------------|-------4-----------------------------|
A:----2---------------------|-----4-------------------------------|
E:-0------------------------|--2----------------------------------|

[Intro2]
    F#m7(add 4)
e:----------------0--------------------------------------------------|
B:------------0--(0)-------------------------------------------------|
G:--0------2---------------------------------------------------------|
D:-------4-----------------------------------------------------------|
A:-------------------------------------------------------------------|
E:--2----------------------------------------------------------------|

[Riff 1]
    F#m       Em                                 D6/E
e:----9.-------7----7~-----------------------------7~----------------|
B:---10.-------8----8~-----------------------------7~----------------|
G:---11.-------9----9~-----------------------------7~----------------|
D:------------------------7-7--7-7-8-9--7-7--------7~----------------|
A:------------------------------------------7-7----------------------|
E:----------------------------------------------0--------------------|

[Riff 2a]
                              D/E
e:---------9------7~----------------5~-------------------------------|
B:--------10------8~-----------7----7~-------------------------------|
G:--------11------9~-----------7----7~-------------------------------|
D:-----------------------------7-------------------------------------|
A:-------------------------------------------------------------------|
E:---0~--------------------0~----------------------------------------|

[Riff 2b]
                                   D/E
e:---------9------7~----------------7~-------------------------------|
B:--------10------8~-----------7----7~-------------------------------|
G:--------11------9~-----------7----7~-------------------------------|
D:-----------------------------7-------------------------------------|
A:-------------------------------------------------------------------|
E:---0~--------------------0~----------------------------------------|

[Riff 3]
    E                                       F5
e:---------------------------------------|---------|-----------------|
B:--9---7--8--9--------------------------|---------|-----------------|
G:--9---7--8--9---7-8-9-9--7-8-9--7-9----|--10~----|--10~~\----------|
D:--9---7--8--9---7-8-9-9--7-8-9--7-9----|--10~----|--10~~\----------|
A:---------------------------------------|---------|-----------------|
E:---------------------------------------|---------|-----------------|

[Ascending octave progression 1]
   Em
e:-------------------------------------------------------------------|
B:-------------------------------------------------------------------|
G:-------------------------------------------------------------------|
D:--4s5----5s7---7s9-----10-----10s12--------------------------------|
A:------7------9-----10------12--------14----------------------------|
E:-------------------------------------------------------------------|

[Ascending octave progression 2]
   C(add9 #11)
e:-------------------------------------------------------------------|
B:-------------------------------------------------------------------|
G:--7s9-----11----12-----12s14-----14s16-----------------------------|
D:------10-----12----14---------16--------17s12----------------------|
A:-------------------------------------------------------------------|
E:-------------------------------------------------------------------|

[Ascending octave progression 3]
   Em
e:-------------------------------------------------------------------|
B:-------------------------------------------------------------------|
G:-2s4----5----5s7---7s9-----9s11------------------------------------|
D:-----5----7------9-----10-------12s9-------------------------------|
A:-------------------------------------------------------------------|
E:-------------------------------------------------------------------|

[Ascending octave progression 4]
    C(add9 #11)                             F#m/E     Em
e:-------------------------------------------------------------------|
B:--7s8----10----10s12------13------15--------17s19---17--17~~~------|
G:------9-----11---------12------14-----16---------------------------|
D:-------------------------------------------------------------------|
A:-------------------------------------------------------------------|
E:-------------------------------------------------------------------|

[Riff 4a] - the notes in ()'s can be played, if you are skilled enough

e:---(9.)---(7)-(7~)----'12--9---------------------------------------|
B:--(10.)---(8)-(8~)---'10-----10--10b12--10--8~---------------------|
G:--(11.)---(9)-(9~)---11--------------------------------------------|
D:-------------------------------------------------------------------|
A:-------------------------------------------------------------------|
E:-------------------------------------------------------------------|
                       rake

[Riff 4b] - the notes in ()'s can be played, if you are skilled enough

e:--------------------(7~)----'10---7--------------------------------|
B:--------------------(7~)---'7-------8--8s10--7---------------------|
G:--------------------(7~)---7--------------------7~-----------------|
D:--(7)-(7)-----------(7~)-------------------------------------------|
A:----------(7)-(7)--------------------------------------------------|
E:-----------------(0)-----------------------------------------------|
                             rake

[Riff 4c]
e:---(9.)---(7)-(7~)----'12--9-----9b10---9--7~----------------------|
B:--(10.)---(8)-(8~)---'10-----10------------------------------------|
G:--(11.)---(9)-(9~)---11--------------------------------------------|
D:-------------------------------------------------------------------|
A:-------------------------------------------------------------------|
E:-------------------------------------------------------------------|
                       rake

[Riff 4d]
e:---------------------(7~)----'10--7----7s9--------|----------------|
B:---------------------(7~)---'7------8------10-----|----------------|
G:---------------------(7~)---7-----------------11--|--9b11r9---9~---|
D:--(7)-(7)------------(7~)-------------------------|----------------|
A:----------(7)-(7)---------------------------------|----------------|
E:-----------------(0)------------------------------|----------------|
                              rake

[Riff 5a]
e:-------------------------------------------------------------------|
B:---------8--------7--5---7b8---------------------------------------|
G:--11-------9--------------------7b9r7------------------------------|
D:----11-------9-9------------------------9--------------------------|
A:-------------------------------------------------------------------|
E:-------------------------------------------------------------------|
[ Tab from: http://www.guitartabs.cc/tabs/a/aly_and_aj/no_one_tab.html ]
[Riff 5b]
e:-------------------------------------------------------------------|
B:--8-8--------7-----------------------------------------------------|
G:------9-9-------7------9--7----9b11--7b9---------------------------|
D:----------9-------7-7-----------------------7----------------------|
A:-------------------------------------------------------------------|
E:-------------------------------------------------------------------|

[Riff 5c]
e:-9---9--------7----------------------------------------------------|
B:-------10---------8-------10------10b12----8b10r8------------------|
G:----------11--------9-9-------9----------------------9-------------|
D:-------------------------------------------------------------------|
A:-------------------------------------------------------------------|
E:-------------------------------------------------------------------|

[Riff 5d]
e:--7-7--------5-5---------------------------------------------------|
B:------8-8--------7-------8--7--8b10---8b10-------------------------|
G:----------9--------7-7------------------------11-------------------|
D:-------------------------------------------------------------------|
A:-------------------------------------------------------------------|
E:-------------------------------------------------------------------|

[Riff 6a]                     [Riff 6b]
e:-------------------------|-----------------------|-----------------|
B:--8-8--------8b10r8------|--7-7--------7b8r7-----|-----------------|
G:------9-9----------------|------7-7--------------|---9b11---9--9---|
D:----------9--------------|----------7------------|-----------------|
A:-------------------------|-----------------------|-----------------|
E:-------------------------|-----------------------|-----------------|

[Riff 7a]
    Em
e:-------0------0------0-----0---------------------------------------|
B:-----0------0------0-----0-----------------------------------------|
G:--------------------------------0----------------------------------|
D:--2------4------5------7------5----4p2-----------------------------|
A:-------------------------------------------------------------------|
E:-------------------------------------------------------------------|

[Riff 7b]
    C(add9 #11)
e:----------2p0-------2p0--------------------------------------------|
B:-------3------3----------3-----------------------------------------|
G:-----0----------------------0--0-----------------------------------|
D:-------------------------------------------------------------------|
A:--3--------------3-------------------------------------------------|
E:-------------------------------------------------------------------|

[Riff 7c]                          [Riff 7d]
    C(add9 #11)
e:---------------0------2p0-----0-|----------2p0---------------0-----|
B:-------3----------3--------3----|--------3-----3---------------3---|
G:-----0---0--0-------------------|------0-------------------0-----0-|
D:--------------------------------|----2-------------4--2--4---------|
A:--3-----------------------------|--3-------------------------------|
E:--------------------------------|----------------------------------|

[Riff 8]
   Em                                      D
e:-7-7-7-7--7-7-7-7--7-7-7-7--7-7-7-7---7----------------------------|
B:-8-8-8-7--8-8-8-7--8-8-8-7--8-8-8-7---8--7-------------------------|
G:-9-9-9-9--9-9-9-9--9-9-9-9--9-9-9-9---9--7-------------------------|
D:-----------------------------------------7-------------------------|
A:-------------------------------------------------------------------|
E:-------------------------------------------------------------------|
   C
e:-8-8-8-7--8-8-8-7--8-8-8-7--8-8-8-7---8----------------------------|
B:-8-8-8-7--8-8-8-7--8-8-8-7--8-8-8-7---8--7-------------------------|
G:-9-9-9-7--9-9-9-7--9-9-9-7--9-9-9-7---9--7-------------------------|
D:-----------------------------------------7-------------------------|
A:-------------------------------------------------------------------|
E:-------------------------------------------------------------------|

[Riff 9]
e:-------------------------------------------------------------------|
B:--5s7--5--5~~----7s8--7--5---3---5---------------------------------|
G:------------------------------------5~~~---------------------------|
D:-------------------------------------------------------------------|
A:-------------------------------------------------------------------|
E:-------------------------------------------------------------------|

[Riff 10]
              Repeat 4x
e:---------|--9s12--12~--|---12ss15~~--------------------------------|
B:---------|-10s12--12~--|---12ss17~~--------------------------------|
G:-5sssss9-|-------------|-------------------------------------------|
D:---------|-------------|-------------------------------------------|
A:---------|-------------|-------------------------------------------|
E:---------|-------------|-------------------------------------------|

[Riff 11a]                      [Riff 11b]
    E                           E
e:----------------------------|--------------------------------------|
B:--------------8~---7--8--x--|------------7-------------------------|
G:--------------9~---7--9--x--|------------7-------------------------|
D:--------7-9-----------------|-------7-9--7---9-9-7-7---------------|
A:--7-9-9---------------------|-7-9-9------------------9-------------|
E:----------------------------|--------------------------------------|

[Riff 12]
    Em                                C(add9 #11)
e:--0-(0)~-----------------------------0-(0)~--------------0---------|
B:--0-(0)~-----------------------------3-(3)~-----------------3--3p0-|
G:--0--0-------------------------------0-(0)~------0--(0)------------|
D:--2-(2)----4~---5~---7~--5~---4p2----x-------2~--------------------|
A:--2-(2)------------------------------3-(3)~----------3-------------|
E:--0-(0)~-----------------------------------------------------------|

[Riff 13] - the section where the guitars are randomly brought to the
                foreground - cleaned up a bit
e:-------------------------------------------------------------------|
B:-13--12---15b17~~------------------------------------12--13--12----|
G:-----------------------12b14r12~~~-----14b16r14~-------------------|
D:-------------------------------------------------------------------|
A:-------------------------------------------------------------------|
E:-------------------------------------------------------------------|

e:-------------15b17----15-------------------------------------------|
B:-15b17~-------------------15b17~--------12b13----12----------------|
G:-----------------------------------------------------14--12--------|
D:-------------------------------------------------------------------|
A:-------------------------------------------------------------------|
E:-------------------------------------------------------------------|

e:-----------------------------------15b17~------15--12------12------|
B:------------12--13b15----13.--12-----------------------15------15--|
G:--14b16~-----------------------------------------------------------|
D:-------------------------------------------------------------------|
A:-------------------------------------------------------------------|
E:-------------------------------------------------------------------|

e:-----------------------------------------------15b17r15----12--12~---|
B:-12--15~----12b15r12~~----10-----------------------------------------|
G:-----------------------------12----12-14-12~~------------------------|
D:--------------------------------14-----------------------------------|
A:---------------------------------------------------------------------|
E:---------------------------------------------------------------------|
Comments