Alter Bridge - The End Is Here Chords & Tabs

 

The End Is Here Chords & Tabs

Alter Bridge Chords & Tabs

Version: 1 Type: Tab 0 ratings
1 star 2 stars 3 stars 4 stars 5 stars
comments

The End Is Here Tab

Alter Bridge - The end is here
------------------------------

tab by Peatle

Propably Tremonti is playing in C, but therefore some people can't tune their guitar down to C I just wrote it down in the normal 

DADGHE.

Intro: 2x

he ---8-6-4--4p6-4-3-3-1p3-4-3-1-1p3-1-0-0---------
 h ------------------------------------------------
 g ------------------------------------------------
 d ------------------------------------------------
 a ------------------------------------------------
 d ------------------------------------------------
 

Verse: without vocals 2x

he ---------------------------------------------------------
 h ---------------------------------------------------------
 g ---------------------------------------------------------
 d -10---10--10-10-12-13--10--10-10--9--9--p12-13p10--------
 a -10---10--10-10-10-10--10--10-10--10-10-----10-10--------
 d -10---10--10-10-10-----10--10-10--9--9---------10--------

Interlude1: before vocals
[ Tab from: http://www.guitartabs.cc/tabs/a/alter_bridge/the_end_is_here_tab.html ]
he ------------------------------------------------
 h ------------------------------------------------
 g ----------10------------------------------------
 d --12p13p12--13-12-10----------------------------
 a ---------------------13-11-10-------------------
 d ------------------------------------------------
 
verse:1 same as verse without the interlude

chorus: that are just the chords, no interludes

he --------------------------------------------------
 h --------------------------------------------------
 g --------------------------------------------------
 d -10---9-----5--6-6----1--8------------------------
 a -10---10----5--5p6----1--8--8---------------------
 d -10---9-----5--6-6----1--8--10--------------------

Interlude2: before vocals after 1st chorus

he -----------------------------------------------
 h -----------------------------------------------
 g -----------------------------------------------
 d --------10-12----------------------------------
 a --10-13---------10p11p10-----------------------
 d --------------------------13p10----------------
Comments