Alter Bridge - Open Your Eyes Chords & Tabs

 

Open Your Eyes Chords & Tabs

Alter Bridge Chords & Tabs

Version: 1 Type: Tab 1 rating
1 star 2 stars 3 stars 4 stars 5 stars
comments

Open Your Eyes Tab

-----------------------------------------------------------------------------
			     OPEN YOUR EYES - Alter Bridge
Tabbed by:reuben   
Email:rubes_intheleast88@hotmail.com

Tuning: dadadd; After seeing the video, this is how I think the song is played. Also, check out the solo in this song; hats off to Tremonti to finally make some new music again (i was worried for a while that rock had died) and bring guitar back to rock music. 

intro/preverse
 w/ dist
  PM..|                           PM..|
d|---------------------------------------------------------------|
d|---------------------------------------------------------------|
a|-5-5-7/9-9-9-7-7-5-5-5---5-5-5---5-5-7/9-9-9-7-7-9-9-x-7-5-5-5-|
D|-x-x-x---x-x-x-x-x-x-x---x-x-x---x-x-x---x-x-x-x-x-x-x-x-x-x-x-|
A|-5-5-7/9-9-9-7-7-5-5-5---5-5-5---5-5-7/9-9-9-7-7-9-9-x-7-5-5-5-|
D|-0-0-0---0-0-----0-0-0---0---0---0-0-0---0-0-0-0-0-0-----0---0-|

  PM..|                           PM..|
d|---------------------------------------------------------------|
d----------------------7---7---7---------------------------------|
a|-0-0-7/9-9-9-7-7-5-5-5---5-5-5-------5/7-7-7-5-4-4-5-5---5-5-5-|
D|-0-0-7/9-9-9-7-7-5-5-5---5-5-5---x-x-x---x-x-x-x-x-x-x---x-x-x-|
A|-0-0-7/9-9-9-7-7-5-5-5---5-5-5---5-5-5/7-7-7-5-4-4-5-5---5-5-5-|
D|-0-0-7/9-9-----------5---5---5---5-5-x---x-x-5-x-x---0---0---0-|

clean
1st verse
d|-----0-------------------------------------5-------------------|
d|-----0-------------------------------------5-------------------|
a|-----4-------------------------------------5-------------------|
D|-----2-----------------------------------5-5-------------------|
A|-----2-------------------------------5---5---------------------|
D|-------------------------------------5---5---------------------|


d|---------------------------------------------------------------|
d|-----0---0-0---0-0-0-0-----------0-0-0---0-0---0-0--0--0-------|
a|-----7/9-9-9-x-7-7-5-5-----------7-7-7/9-9-9-x-7-7-12-12-------|
D|-----x---x-x-x-x-x-x-x-----------x-x-x---x-x-x-x-x--x--x-------|
A|-----7/9-9-9-x-7-7-5-5-----------7-7-7/9-9-9-x-7-7-12-12-------|
D|-----0-----0---0-0-0-0---------------0---0-0-----0--0--0-------|
 
                              
d|-----0-------------------------------------5-------------------|
d|---0-0-------------------------------------5-------------------|
a|-0-0-4---------------------------0-0-------5-------------------|
D|-0-0-4---------------------------0-0-----5-5-------------------|
A|-0-0-2---------------------------0-0-5---5---------------------|
D|-0-----------------------------------5---5---------------------|


d|-------------------7-7-------7---------------------------------|
d|-------------------7-7-------7---------------------------------|
a|-x-x-7-9-9-9-x-7-7-5-5-------5---0-0-5/7-7-x-5-4-4-5-5-----5-5-|
D|-x-x-x---x-x-x-x-x-7-5-----5-5---0-0-x---x-x-x-x-x-x-x-----x-x-|
A|-x-x-7/9-9-9-x-7-7-5-5-----5-----0-0-5/7-7-x-5-4-4-5-5-----5-5-|
D|-----7/9-9-9-------5-5-----5-----0-0---------------0-0-----0-0-|


d|-------------0---------------0---0---------5-----5-5-5-5---5-5-|
d|-----0-------0-----0-0-0-0---0-0-0---------5-----5-5-5-5---5-5-|
a|-5-5-4-----5-4-----4-4-4-4---4-4-4-0-----5-5-----5-5-5-5---5-5-|
D|-x-x-4-----4-4-----4-4-4-4---4-4-4-0-----5-5-----5-5-5-5---5-5-|
A|-5-5-2-------2-----2-2-2-2---2-2-2-0-5---5-------5-5-5-5---5-5-|
D|-0-0-0-----------------------------0-5-----------5-5-5-5-------|


d|---5-0-------0-----0-0-0-0-0-0-0-|
d|---5-0-------0-----0-0-0-0-0-0-0-|
a|-5-5-0-------0-----0-0-0-0-0-5/7-|
D|-5-5-0-------0-----0-0-0-0-0-0-0-|
A|-5---0-------0-------0-0---0---0-|
D|-5---0-------0-------0-0---0-----|


d|-0---------0---------0-0-------0-----5-------------------------|
d|-0-0-0-----0-0-----0-0-0-0---0-0-----5-------------------------|
a|-7-0-4-----4-4-----4-4-4-4---4-4-0-0-5-------------------------|
D|-0-0-4-----4-4-----4-4-4-4---4-4-0-0-5-------------------------|
A|-0-0-2-------2-----2-2-2-2---2-2-0-0-5-------------------------|
D|---0-----------------------------0-0-5-------------------------|


Chorus
w dist
 PM..|
d|-----0-------------------------------------------5-----5-5-5-5--|
d|-----0-----0-----------0-0-0-0-0-0-0-------------5-----5-5-5-5--|
a|-5---5-----5-0-0-4-----4-4-4-5-4-4-0-2-----2-2-2-5-----5-5-5-5--|
D|-5-0-x-----x-0-0-x-----x-x-x-x-x-x-0-4-----4-4-4-5-----5-5-5-5--|
A|-5-0-5-----5-0-0-4-----4-4-4-5-4-4-0-2-----2-2-2-5-----5-5-5-5--|
D|-5-0-0-----0-0-0-0-----0-0-0-0-0-0-0-------------5-----5-5-5-5--|


d|-5-5-2-------2-----2-2-2-2---2---2-2-5---5-5-5---5-5-5-5-5---5-5|
d|-5-5-2-------2-----2-2-2-2---2---2-2-5---5-5-5---5-5-5-5-5---5-5|
a|-5-5-0-------0-----0-0-0-0---0---0-0-5---5-5-5---5-5-5-5-5---5-5|
D|-5-5-2-------2-----2-2-2-2---2---2-2-5---5-5-5---5-5-5-5-5---5-5|
A|-5-5-0-------0-----0-0-0-0---0---0-0-5---5-5-5---5-5-5-5-5---5-5|
D|-5-5---------------------------------5---5-5-5---5-5-5-5-5---5-5|


  PM..|       PM..|
d|-5-5-0-------------------------------------------5--------------|
d|-5-5-0-----0-----------0-0-0-0-0-0-0-------------5--------------|
a|-5-5-5-----5-0-0-4-----4-4-4-5-4-4-0-2-----2-2-2-5--------------|
D|-5-5-x-----x-0-0-x-----x-x-x-x-x-x-0-4-----4-4-4-5--------------|
A|-5-5-5-----5-0-0-4-----4-4-4-5-4-4-0-2-----2-2-2-5--------------|
D|-5-5-0-----0-0-0-0-----0-0-0-0-0-0-0-------------5--------------|
[ Tab from: http://www.guitartabs.cc/tabs/a/alter_bridge/open_your_eyes_tab.html ]
2nd Preverse (to me it sounded different than the 1st time)
                  PM..|   PM..|   
d|---------------------------------------------------------------|
d|-------------------------------------0-------0-----------------|
a|---5-7/9-9-9-7-7-----5-------5---5-5-7/9-9-9-x-7-9-9-x-7-5-5-5-|
D|---x-x---x-x-x-x-----x-------x---x-x-x---x-x-x-x-x-x-x-x-x-x-x-|
A|---5-7/9-9-9-7-7-0-0-5---0-0-5---5-5-7-9-9-9-x-7-9-9-x-7-5-5-5-|
D|---0-0---0-0-----0-0-----0-0-----0-0-0---0-0---------0---0-0-0-|

  PM..|                   PM..|   PM..|                  
d|---------------------7-------7---------------------------------|
d----------------------7-------7---------------------------------|
a|-0-0-7/9-9-9-7-7-5-5-5---5-5-5-------5/7-7-7-x-4-5-5-5---5-5-5-|
D|-0-0-7/9-9-9-7-7-7-7-5---5-5-5---x-x-x---x-x-x-x-x-x-x---x-x-x-|
A|-0-0-7/9-9-9-7-7-5-5-5---5-5-5---5-5-5/7-7-7-x-4-5-5-5---5-5-5-|
D|-0-0-7/9-9-----------5---5-5-5---5-5-x---x-x-5-x-x---0---0---0-|


2nd verse
d|-------------------------------------------5---------------------------|
d|---0-0-------------------------------------5---------------------------|
a|-0-0-4-------------------------------------5---------------------------|
D|-0-0-4-------------------------------5---5-5---------------------------|
A|-0-0-2-------------------------------5---5-----------------------------|
D|-0-0---------------------------------5---5------------------------------|


d|---------------------------------------------------------------|
d|-0-0-0---0-0---0-0-0-0---------------0---0-0---0-0---0-0-0-0-0-|
a|-5-5-7/9-9-9-x-7-7-5-5-----------7-7-7/9-9-9---7-7-9-x-7-5-5-5-|
D|-x-x-x---x-x-x-x-x-x-x-----------x-x---x-x-x---x-x-x-x-x-x-x-x-|
A|-5-5-7/9-9-9-x-7-7-5-5-----------7-7-7/9-9-9---7-7-9-x-7-5-5-5-|
D|---------------------------------------------------------------|


d|-----0-------------------------------------5-------------------|
d|-----0-------------------------------------5-------------------|
a|-0-0-4---------------------------0-0-----5-5-------------------|
D|-0-0-4---------------------------0-0-5---5-5-------------------|
A|-0-0-2---------------------------0-0-5---5---------------------|
D|-0-0-----------------------------0-0-5---5---------------------|


d|-------------------7-------7-----------------------------------|
d|-----------------x-7-------7-----------------------------------|
a|-----7/9-9-9-7-7-x-5-------5-----0---5/7-7-7-x-4-4-5-5---5-5-5-|
D|-0-0-7/9-9-9-7-7-x-5-------5-----0---x---x-x-x-x-x-x-x---x-x-x-|
A|-0-0-7/9-9-9-7-7-x-5-------5-----0---5/7-7-7-x-4-4-5-5---5-5-5-|
D|-0-0-7/9-9-9-7-7-x-5-------------0---0---0-0---0-0-0-0---0-0-0-|
 
                             
d|-------------0-------------------------------5-----5-5-5-5---5-|
d|-----0-------0---------0-0---0-0-----5-----5-5-----5-5-5-5---5-|
a|-0---4-------4-----4-4-4-4---4-4-0-0-5-----5-5-----5-5-5-5---5-|
D|-0---4-------4-----4-4-4-4---4-4-0-0-5-----5-5-----5-5-5-5---5-|
A|-0---2-------2-----2-2-2-2---2-2-0-0-5-----5-5-----5-5-5-5---5-|
D|-0-------------------------------0-0-5-----5-5---------------5-|


d|-5-0-0-----------------------0-0-|
d|-5-0-0-----0-0-----0-0-0-0---0-0-|
a|-5-0-0-----0-0-----0-0-0-0---0-0-|
D|-5-0-0-----0-0-----0-0-0-0---0-0-|
A|-5-0-0-----0-0-----0-0-0-0---0-0-|
D|-5-0-0-------0-----0-0-0-0---0-0-|


d|-----0-------0---------------0-0-----------5-------------------|
d|-----0-------0---------0-0---0-0-0-0-------5-------------------|
a|-0-0-4-------4-----4-4-4-4---4-4-0-0-5---5-5-------------------|
D|-0-0-4-------4-----4-4-4-4---4-4-0-0-5---5-5-------------------|
A|-0-0-2-------2-----2-2-2-2---2-2-0-0-5---5-5-------------------|
D|-0-0-----------------------------0-0-5---5---------------------|

(chorus- extra bar added)

d|-----0---------------0---------------5---------------------------|
d|-----0-------------------0-----------5---5-----------------------|
a|-----4---------------------4-----0-0-5---5-----------------------|
D|-----4-------------4-------------0-0-5---5-----------------------|
A|-----2---------------------------0-0-5---5-----------------------|
D|---------------------------------0-0-5---5-----------------------|


d|-5-5-0-------0-----0-0-0-0-0-0--0-0-0-----0-0-0-0-----0-0-0-0--|
d|-5-5-0-------0-----0-0-0-0-0-0--0-0-0-----0-0-0-0-----0-0-0-0--|
a|-5-5-5-------5-----5-5-5-5-5-7975-5-7-----7-7-7-5-----5-5-5-797|
D|-5-5-0-------0-----0-0-0-0-0-0--0-0-0-----0-0-0-0-----0-0-0-0--|
A|-5-5-0-------0-----0-0-0-0-0-0--0-0-0-----0-0-0-0-----0-0-0-0--|
D|-5-5-0-------0-----0-0-0-0-0-0--0-0-0-----0-0-0-0-----0-0-0-0--|


d|-0-0-------------------------0-0-0-0-5-------5-------------5-5-|
d|-0-0---------0---------------0-0-0-0-5-------5-------------5-5-|
a|-5-0---------4---------------4-4-0-0-5-----5-5-------------5-5-|
D|-0-0---------4---------------4-4-0-0-5-----5-5-------------5-5-|
A|-0-0-2-------2---------------2-2-0-0-5-----5-5-------------5-5-|
D|-0-0---------------------------------------5---------------5-5-|

                                                fade out
d|-0-0-0-------0-----0-0-0-0-0-0--0-0-0-----0-0-0-0-----0-0-0-0--|
d|-0-0-0-------0-----0-0-0-0-0-0--0-0-0-----0-0-0-0-----0-0-0-0--|
a|-5-5-5-------5-----5-5-5-5-5-7975-5-7-----7-7-7-9-----9-9-9-9--|
D|-0-0-0-------0-----0-0-0-0-0-0--0-0-0-----0-0-0-0-----0-0-0-0--|
A|-0-0-0-------0-----0-0-0-0-0-0--0-0-0-----0-0-0-0-----0-0-0-0--|
D|-0-0-0-------0-----0-0-0-0-0-0--0-0-0-----0-0-0-0-----0-0-0-0--|


                                           w/ dist
                                           volume swell
Comments