Alter Bridge - One Day Remains Chords & Tabs

 

One Day Remains Chords & Tabs

Alter Bridge Chords & Tabs

Version: 1 Type: Bass Tab 0 ratings
1 star 2 stars 3 stars 4 stars 5 stars
comments

One Day Remains Bass Tab

   
Band- Alter Bridge
Song- One Day Remains

TUNING: E,A,D,G

START AFTER 18 SECONDS.
THIS IS A REALLY REALLY REALLY FAST SONG. SO U NEED REALLY FAST FINGERS OR USE A PLECTRUM

INTRO
G)-2222222222----------------------------------I
D)-----------2222222222------------------------I
A)---------------------22222222222222222222----I
E)---------------------------------------------I x2

VERSE
G)-2222222222----------------------------------I
D)-----------2222222222------------------------I
A)---------------------22222222222222222222----I
E)---------------------------------------------I x4

CHORUS
G)---------------------------------------------I
D)-222222--------------------------------------I
A)-------222222-------2h5p2p0-202-2h4p2p0------I
E)-------------222222--------------------------I x3

G)---------------------------------------------I
D)---------------------------------------------I
A)-555655--------202-2h5p2p0-202-2h4p2p0-------I
E)--------555655-------------------------------I x1
[ Tab from: http://www.guitartabs.cc/tabs/a/alter_bridge/one_day_remains_btab.html ]
BRIDGE
G)-2222222222------------------------------2222222222------------------------------------------------------------I
D)-----------2222222222------------------------------2222222222--------------------------------------------------I
A)---------------------22222222222222222222--------------------22222222222222222222--555655------202-2h5p2p0-202-I
E)-----------------------------------------------------------------------------------------555655----------------I

G)---------------------------------------------------------------------------------------------------------------I
D)---------------------------------------------------------------------------------------------------------------I
A)-2h4p2p0--555655-------202-2h5p2p0-202-2h4p2p0-----55565----------202-2h5p2p0-202-2h4p2p0----555655--------202-I
E)----------------555655-------------------------------------555655-----------------------------------555655-----I

G)----------------------------I
D)----------------------------I
A)-2h5p2p0-202-2h4p2p0--------I
E)----------------------------I

ENDING
G)----------------------------------------------------------------I
D)----------------------------------------------------------------I
A)---------------222222--------5-5-5-6-5--------------------------I
E)-555565-555565-------222222------------5-5-5-6-5-5-0~~~~~-------I

ORDER:
INTRO,
VERSE,
CHORUS,
INTRO,
VERSE,
CHORUS,
BRIDGE,
CHORUS,
ENDING.
Comments