Alter Bridge - In Loving Memory Chords & Tabs

 

In Loving Memory Chords & Tabs

Alter Bridge Chords & Tabs

Version: 1 Type: Tab 0 ratings
1 star 2 stars 3 stars 4 stars 5 stars
comments

In Loving Memory Tab

Intro/Verse
e-----------------------------------------------------------|
B--6--7p6---4--4h5p4-------------------2--2/4\2p00----------|
G---6----6---4------4---3-----------------------------------|
D---------6----------4----4-6h8p6p4--4----------------------|
A--4-4------2-2---------------------8--44-4/6/4-------------|
D-------------------------4---------------------------------|
[ Tab from: http://www.guitartabs.cc/tabs/a/alter_bridge/in_loving_memory_tab.html ]
e--------------6~~~--------9-7-6-6--7-6---------------------|
B-6--7p6---4-6--------------------------9~~~~---------------|
G--6----6---------------------------------------------------|
D--------6--------------------------------------------------|
A-4-4------2-4----------------------------------------------|
D--------------4----4-4-------------------------------------|

E-----4--------------1-----------------4---------9----------I
B-----4--------------1-----------------4---------9----------I
G-----6--------------3-----------------6---------11---------I
D-----6---6h8p6p4-4--3-----------------6---------11---------I
A-----4----------8---1---6h8p6p4-4-----4---------9----------I
D-----4--------------1----------8------4---6/8-8-9----------I
Comments