Alter Bridge - Find The Real Chords & Tabs

 

Find The Real Chords & Tabs

Alter Bridge Chords & Tabs

Version: 7 Type: Tab 0 ratings
1 star 2 stars 3 stars 4 stars 5 stars
comments

Find The Real Tab

Artist: Alter Bridge                                                     Key:
Album: One Day Remains (2004)                                         b= Bend
Label: Wind-Up                                                       /= Slide
Song: Find the Real                                                ~= Vibrato
Guitarist: Mark Tremonti                                           += Tremolo
Tuning: Dropped D (ebgdad)                                       h= hammer on
                                                        ^= depress whammy bar
                                                                 p= pull off
e-------------------------------------------------------------------13-15~-|
b-13b------------------8h10h13-8h10h13-8h10h13-8h10h13-13b----13-15--------|
g-12b-12-12/10---10-12-------------------------------------14--------------|
d--------------12----------------------------------------------------------|
a--------------------------------------------------------------------------|
d--------------------------------------------------------------------------|
                                +  +  +  +  +  +  +  +  +  +  +  +  +
e-17-16-15-13------13-15-15b-13-15p13----------15p10-------15p10-----------|
b-------------15-15------------------15p13-----------13p10-------13p10-----|
g-----------------------------------------14p12----------------------------|
d--------------------------------------------------------------------------|
a--------------------------------------------------------------------------|
d--------------------------------------------------------------------------|
  +  +  +  +  +  +  +  +        ^        ^  ^  ^
e-13p10-------13p10-------13-12-10---------------20~-20-17-20~-----|
b-------13p10-------13p10----------13-12-10------------------------|
g-------------------------------------------12-9-------------------|
d------------------------------------------------------------------|
a------------------------------------------------------------------|
d------------------------------------------------------------------|
[ Tab from: http://www.guitartabs.cc/tabs/a/alter_bridge/find_the_real_tab_ver_7.html ]
Comments