Alter Bridge - Find The Real Chords & Tabs

 

Find The Real Chords & Tabs

Alter Bridge Chords & Tabs

Version: 6 Type: Tab 0 ratings
1 star 2 stars 3 stars 4 stars 5 stars
comments

Find The Real Tab

   
Alter Bridge
Find the Real

These are all of the leads including the solo. I know that this is somewhat frowned upon 
around here, but the other tabs have less than accurate leads. (Not saying mine's perfect)

Tuning: Half step down then drop "D" (Db-Ab-Db-Gb-Bb-Eb)


(:48)

|------------------------------------------------------------------------------------------|
|-13----13---------------------------------------------------------------------------------|
|-12^B--12^B^p10------10----------------------12--10---------------------------------------|
|-----------------12------------------10---------------------------------------------------|
|--------------------------------/12------12-----------------------------------------------|
|-------------------------0--0-------------------------------------------------------------|


(1:00)
|---------------------------------------------------13--15B--------------------------------|
|-13----13----------------10---------13------13h15------13B--------------------------------|
|-12^B--12^B^p10------10------12/14------14------------------------------------------------|
|-----------------12-----------------------------------------------------------------------|
|------------------------------------------------------------------------------------------|
|------------------------------------------------------------------------------------------|


(1:51)
|------------------------------------------------------------------------------------------|
|-----------------15p13p10----------------10---------------------12^b^--10--12^b^--10------|
|------10--12h14------------12^B^p10------10---------------------12^b^--10--12^b^--10------|
|-/12---------------------------------12------12p10------10--12----------------------------|
|----------------------------------------------------12------------------------------------|
|------------------------------------------------------------------------------------------|


(2:04)
|------------------------------------------------------------------------------------------|
|------------------------------------------------------------------------------------------|
|------------------------------------------------------------------------------------------|
|-5^b--5^b^p3-----3-------------------3-----5^b^p3-----------------------------------------|
|--------------5-----5p3p0--3--5---------5----------5--------------------------------------|
|------------------------------------------------------------------------------------------|


(2:47)                                                                       A.H.
|------------------------------------------------------------------------------------------|
|-13------------13-----13-----------------------------------------------------------x--x---|
|-12^B~~~~~~~~--12^B---12^B---12^B^p10------10--12/14--10---------------------10----x--x---|
|---------------------------------------12-----------------12p10------10--12--------x--x---|
|-----------------------------------------------------------------12-----------------------|
|------------------------------------------------------------------------------------------|


|--------------|----|---------------------------------13--15^B--15^B--^15--13---17^B(1.5)--|
|-------10--13-|----|-13^B~~~~~~~~~-----------13--15---------------------------------------|
|-12^B---------|-X8-|----------------/12--14-----------------------------------------------|
|--------------|----|----------------------------------------------------------------------|
|--------------|----|----------------------------------------------------------------------|
|--------------|----|----------------------------------------------------------------------|


|-17--13--15--13------13--15--15^B--^15--13----------13------------------------------------|
|-----------------15-------------------------15--15------15p13------15--13-----------------|
|---------------------------------------------------------------14----------14--12^b^p10---|
|------------------------------------------------------------------------------------------|
|------------------------------------------------------------------------------------------|
|------------------------------------------------------------------------------------------|

[ Tab from: http://www.guitartabs.cc/tabs/a/alter_bridge/find_the_real_tab_ver_6.html ]
|-------------------------------10h15--10h13p10------10h15p13p10---------10h16p13p10-------|
|--------------------12--10----------------------13---------------13p10---------------13p10|
|-12--10-------------12--10----------------------------------------------------------------|
|---------12p10----------------------------------------------------------------------------|
|----------------12------------------------------------------------------------------------|
|------------------------------------------------------------------------------------------|


|-10h15p13p10------------------10--10--13p10------10--13p10--15p10--13p10------10--13p10---|
|--------------15p13p10--13^B-----------------13---------------------------13--------------|
|------------------------------------------------------------------------------------------|
|------------------------------------------------------------------------------------------|
|------------------------------------------------------------------------------------------|
|------------------------------------------------------------------------------------------|

                                                               depress whammy bar 
|-----10--13p10------10--13p10--15p10--13p10------10--13--12--10---|-----------|-----------|
|-13-------------13---------------------------13------------------13--12--10---|-----------|
|-----------------------------------------------------------------------------12--10--9--10|
|------------------------------------------------------------------------------------------|
|------------------------------------------------------------------------------------------|
|------------------------------------------------------------------------------------------|


|-20^B~~~~~~~~-^20--17--^18--13---/17--15--14----------------------------------------------|
|------------------------------------------------------------------------------------------|
|------------------------------------------------------------------------------------------|
|------------------------------------------------------------------------------------------|
|------------------------------------------------------------------------------------------|
|------------------------------------------------------------------------------------------|


(3:32)
|------------------------------------------------------------------------------------------|
|-10--10-----10---10--12^b^p10------10--10------------10--10-----------13p10------13--13---|
|-10--10-----10---10--12^b^p10------10--10------------10--10-------12---------12------12^B-|
|-------------------------------12----------12p10-------------12\--------------------------|
|--------------------------------------------------12--------------------------------------|
|---------0--------------------------------------------------------------------------------|


(3:45)
|------------------------------------------------------------------------------------------|
|-13----13------------10-------------10-10------------------10-----------------------------|
|-12^B--12^B^p10------10-------------10-10------------------10-----------------------------|
|-----------------12------12p10------------------12p10-----------12------------------------|
|--------------------------------12---------------------12---------------------------------|
|------------------------------------------------------------------------------------------|


(3:58)
|------------------------------------------------------------------------------------------|
|------------------------------------------------------------------------------------------|
|------------------------------------------------------------------------------------------|
|-5^b--5^b^p3-----3---------3---------3-----5^b^p3-----------------------------------------|
|--------------5-----5p3p0-----5--x------x----------5--------------------------------------|
|------------------------------------------------------------------------------------------|


(4:09)
|--------------|------|-------------------15^B---------------------------------------------|
|-------10--13-|------|--13^B~~~~~~~~~----13^B---------------------------------------------|
|-12^B---------|--X6--|--------------------------------------------------------------------|
|--------------|------|--------------------------------------------------------------------|
|--------------|------|--------------------------------------------------------------------|
|--------------|------|--------------------------------------------------------------------| 

Tremonti is a rock God.
Comments