Alter Bridge - Find The Real Chords & Tabs

 

Find The Real Chords & Tabs

Alter Bridge Chords & Tabs

Version: 3 Type: Tab 0 ratings
1 star 2 stars 3 stars 4 stars 5 stars
comments

Find The Real Tab

 Find The Real-Alter Bridge    #Tune Down 1/2 and drop-D#

Tabbed By;Todd R.                                                 P-Pinch
Email;Rocket105hotmail.com                                        1/4-Bend
[ Tab from: http://www.guitartabs.cc/tabs/a/alter_bridge/find_the_real_tab_ver_3.html ]
                                                  P
                                                 1/4
E---------------------------------------------------------------|
B---------------------------------------------------------------|
G---------------------------------------------------------------|
D------------------------------------------------3--------------|
A--------5-4-3----------------3----------3---3-5----------------|
E---0-0---------7-6---0-3-0-5---3--0-3-5---5--------------------|
                                               P
                                              1/4
E---------------------------------------------------------------|
B---------------------------------------------------------------|
G---------------------------------------------------------------|
D---------------------------------------------------------------|
A-------5-4-3--------------3----------2-------------------------|
E---0-0-------7-6--0-3-0-5---3--0-3-5-2-0-2-3-1-----------------|
Comments