Alter Bridge - Cry Of Achilles Chords & Tabs

 

Cry Of Achilles Chords & Tabs

Alter Bridge Chords & Tabs

Version: 1 Type: Bass Tab 0 ratings
1 star 2 stars 3 stars 4 stars 5 stars
comments

Cry Of Achilles Bass Tab

   
Cry of Achilles
Fortress
Alter Bridge
Tuning - Eb
Tabbed by Spetty


Intro 6/8
   
No Bass over acoustic part

4/4 (Triplet feel)

Gb|---------------------------------|--------------------------------|
Db|---------------------------------|--------------------------------|
Ab|----0----------------------------|---0----------------------------|
Eb|---------------------------------|--------------------------------|

Gb|---------------------------------|--------------------------------|
Db|---------------------------------|--7h8p7p5---5-----------5-------|
Ab|----0----------------------------|----------8---8-7-5-7-8---8-7---|
Eb|---------------------------------|--------------------------------|
  
Gb|---------------------------------|--------------------------------|
Db|---------------------------------|--------------------------------|
Ab|----0-------------0--------------|---0-------------0--------------|
Eb|---------------------------------|--------------------------------|

Gb|---------------------------------|--------------------------------|
Db|---------------------------------|--7h8p7p5---5-------------------|
Ab|----0-------------0--------------|----------8---8-7-6-5-4---------|
Eb|---------------------------------|------------------------0-3-5---|


Gb|--------------------------|-------------------------|
Db|*-------7---8---5---7-7-7-|-------7---8---5---------|
Ab|*--0-0-0---0---0---0------|-0-0-0---0---0---0-4-4-4-|
Eb|--------------------------|-------------------------|
                             ________________
                            |1.
Gb|-------------------------|----------------------------------|
Db|-------7---8---5---7-7-7-|---------------------------------*|
Ab|-0-0-0---0---0---0-------|---------------------------------*|
Eb|-------------------------|-5-5-5-/11-11-11-5-5-5-/11-11-11--|
   _____________
  |2.
  
Gb|-----------------------------|
Db|-7h8p7p5---5-----------------|
Ab|---------8---8-7-6-5-4-------|
Eb|-----------------------0-3-5-|

Pre-Verse 3/4

Gb|----------|----------|----------|----------|----------|----------|
Db|----------|----------|----------|----------|----------|----------|
Ab|----------|----------|----------|----------|----------|----------|
Eb|-x-x--5-5-|-x-x--5-5-|-x-x--3-3-|-x-x--3-3-|-x-x--1-1-|-x-x--1-1-|

 
Gb|-5h7p5---5-----------------|
Db|-------7---7-5-------------|
Ab|---------------8-7-5-3-----|
Eb|-----------------------3-5-|


Verse I + II 


Gb|--------------------------|-------------------------|
Db|*-------7---8---5---7-7-7-|-------7---8---5---------|
Ab|*--0-0-0---0---0---0------|-0-0-0---0---0---0-4-4-4-|
Eb|--------------------------|-------------------------|
                             ________________
                            |1.
Gb|-------------------------|----------------------------------|
Db|-------7---8---5---7-7-7-|---------------------------------*|
Ab|-0-0-0---0---0---0-------|---------------------------------*|
Eb|-------------------------|-5-5-5-/11-11-11-5-5-5-/11-11-11--|
   _____________
  |2.
Gb|-----------------------------|
Db|-7h8p7p5---5-----------------|
Ab|---------8---8-7-6-5-4-------|
Eb|-----------------------0-3-5-|


3/4  

Gb|----------|----------|----------|----------|----------|----------|
Db|----------|----------|----------|----------|----------|----------|
Ab|----------|----------|----------|----------|----------|------8-8-|
Eb|-x-x--5-5-|-x-x--5-5-|-x-x--3-3-|-x-x--3-3-|-x-x--1-1-|-x-x------|

Gb|-5h7p5---5-----------------|
Db|-------7---7-5-------------|
Ab|---------------8-7-5-3-----|
Eb|-----------------------3-5-|

4/4

Verse II

Gb|--------------------------|-------------------------|
Db|*-------7---8---5---7-7-7-|-------7---8---5---------|
Ab|*--0-0-0---0---0---0------|-0-0-0---0---0---0-4-4-4-|
Eb|--------------------------|-------------------------|
                             ________________
                            |1.
Gb|-------------------------|----------------------------------|
Db|-------7---8---5---7-7-7-|---------------------------------*|
Ab|-0-0-0---0---0---0-------|---------------------------------*|
Eb|-------------------------|-5-5-5-/11-11-11-5-5-5-/11-11-11--|
   _____________
  |2.
Gb|-----------------------------|
Db|-7h8p7p5---5-----------------|
Ab|---------8---8-7-6-5-4-------|
Eb|-----------------------0-3-5-|

Bridge 4/4

Gb|------------------------------|-----------------------------|
Db|*--------5h7-----------5h7----|--------5h7-----------5h7----|
Ab|*-0-0-0-------0-0-0-0------0--|-0-0-0-------0-0-0-0------0--|
Eb|------------------------------|-----------------------------|
                                
Gb|-----------------------------|----------------------------|
Db|--------5h7----------5h7-----|---------5h7---5h7---5h7----|
Ab|-0-0-0-------0-0-0-0------0--|-0-0-0-------0-----0-----0--|
Eb|-----------------------------|----------------------------|
                                 ______________________________
                                |1.
Gb|-----------------------------|-----------------------------|
Db|--------5h7-----------5h7----|--------5h7-----------5h7----|
Ab|-0-0-0-------0-0-0-0------0--|-0-0-0-------0-0-0-0------0--|
Eb|-----------------------------|-----------------------------|
   __________________________________________________________  

Gb|-----------------------------|---------------------------|
Db|--------5h7----------5h7-----|--------------------------*|
Ab|-0-0-0-------0-0-0-0------0--|---8----7----0-------2-3--*|
Eb|-----------------------------|---------------------------|

   ________________________
  |2.
Gb|------------------------|---------|-------------|-------------|
Db|------------------------|---------|-------------|-------------|
Ab|---0----2----3-----5----|--7------|-------------|-------------|
Eb|------------------------|---------|--4--0-0--0--|--7--0-0--0--|

Gb|------------------|
Db|------------------|
Ab|------------------|
Eb|--12-12-12-12-12--|


Chorus 
  
Gb|--------------------------|--------------------------|
Db|--------------------------|--------------------------|
Ab|--0-0-0-0-0-0-0-0-0-0-0-0-|--0-0-0-0-0-0-0-0-0-0-0-0-|
Eb|--------------------------|--------------------------|

Gb|--------------------------|--------------------------|
Db|--------------------------|--------------------------|
Ab|--0-3-3-3-3-3-3-3-3-3-3-3-|--3-3-3-3-3-3-3-3-3-0-3-3-|
Eb|--------------------------|--------------------------|

Gb|--------------------------|--------------------------|
Db|--------------------------|--------------------------|
Ab|--------------------------|--------------------------|
Eb|--3-3-3-3-3-3-3-3-3-3-3-3-|--3-3-3-3-3-3-3-3-3-3-3-3-|

Gb|--------------------------|---------------------------------------|
Db|--------------------------|---------------------------------------|
Ab|--------------------------|---------------------------------------|
Eb|--2-2-2-2-2-2-2-2-2-2-2-2-|--14-14-14-14-14-14-14-14-14-14-14-14\-|

Gb|--------------------------|--------------------------|
Db|--------------------------|--------------------------|
Ab|--0-0-0-0-0-0-0-0-0-0-0-0-|--0-0-0-0-0-0-0-0-0-0-0-0-|
Eb|--------------------------|--------------------------|

Gb|--------------------------|--------------------------|
Db|--------------------------|--------------------------|
Ab|--3-3-3-3-3-3-3-3-3-0-3-3-|--3-3-3-3-3-3-3-3-3-0-3-3-|
Eb|--------------------------|--------------------------|

Gb|--------------------------|--------------------------|
Db|--------------------------|--------------------------|
Ab|--------------------------|--------------------------|
Eb|--3-3-3-3-3-3-3-3-3-3-3-3-|--0-3-3-3-3-3-3-3-3-3-3-3-|

Gb|--------------------------|---------------------------------------|
Db|--------------------------|---------------------------------------|
Ab|--------------------------|---------------------------------------|
Eb|--2-2-2-2-2-2-2-2-2-2-2-2-|--14-14-14-14-14-14-14-14-14-14-14-14\-|


Gb|------------------------------|-----------------------------|
Db|*--------5h7-----------5h7----|--------5h7-----------5h7----|
Ab|*-0-0-0-------0-0-0-0------0--|-0-0-0-------0-0-0-0------0--|
Eb|------------------------------|-----------------------------|

Gb|------------------------------|-----------------------------|
Db|*--------5h7-----------5h7----|----------------------------|
Ab|*-0-0-0-------0-0-0-0------0--|---7p5\3-5p3p0--------------|
Eb|------------------------------|---------------7p5\3-5p3p0--|

Bridge 

Gb|------------------------------|-----------------------------|
Db|*--------5h7-----------5h7----|--------5h7-----------5h7----|
Ab|*-0-0-0-------0-0-0-0------0--|-0-0-0-------0-0-0-0------0--|
Eb|------------------------------|-----------------------------|
                                
Gb|-----------------------------|----------------------------|
Db|--------5h7----------5h7-----|---------5h7---5h7---5h7----|
Ab|-0-0-0-------0-0-0-0------0--|-0-0-0-------0-----0-----0--|
Eb|-----------------------------|----------------------------|
                                 ______________________________
                                |1.
Gb|-----------------------------|-----------------------------|
Db|--------5h7-----------5h7----|--------5h7-----------5h7----|
Ab|-0-0-0-------0-0-0-0------0--|-0-0-0-------0-0-0-0------0--|
Eb|-----------------------------|-----------------------------|
   __________________________________________________________  
[ Tab from: http://www.guitartabs.cc/tabs/a/alter_bridge/cry_of_achilles_btab.html ]
Gb|-----------------------------|---------------------------|
Db|--------5h7----------5h7-----|--------------------------*|
Ab|-0-0-0-------0-0-0-0------0--|---8----7----0-------2-3--*|
Eb|-----------------------------|---------------------------|

   ________________________
  |2.
Gb|------------------------|---------|-------------|-------------|
Db|------------------------|---------|-------------|-------------|
Ab|---0----2----3-----5----|--7------|-------------|-------------|
Eb|------------------------|---------|--4--0-0--0--|--7--0-0--0--|

Gb|------------------|
Db|------------------|
Ab|------------------|
Eb|--12-12-12-12-12--|

Chorus 
  
Gb|--------------------------|--------------------------|
Db|--------------------------|--------------------------|
Ab|--0-0-0-0-0-0-0-0-0-0-0-0-|--0-0-0-0-0-0-0-0-0-0-0-0-|
Eb|--------------------------|--------------------------|

Gb|--------------------------|--------------------------|
Db|--------------------------|--------------------------|
Ab|--3-3-3-3-3-3-3-3-3-0-3-3-|--7p5\3-5p3p0-------------|
Eb|--------------------------|--------------7p5\3-5p3p0-|

Gb|--------------------------|--------------------------|
Db|--------------------------|--------------------------|
Ab|--------------------------|--------------------------|
Eb|--3-3-3-3-3-3-3-3-3-3-3-3-|--3-3-3-3-3-3-3-3-3-3-3-3-|

Gb|--------------------------|---------------------------------------|
Db|--------------------------|---------------------------------------|
Ab|--------------------------|---------------------------------------|
Eb|--2-2-2-2-2-2-2-2-2-2-2-2-|--14-14-14-14-14-14-14-14-14-14-14-14\-|

Gb|--------------------------|--------------------------|
Db|--------------------------|--------------------------|
Ab|--0-0-0-0-0-0-0-0-0-0-0-0-|--0-0-0-0-0-0-7p5\3-5p3p0-|
Eb|--------------------------|--------------------------|

Gb|--------------------------|--------------------------|
Db|--------------------------|--------------------------|
Ab|--3-3-3-3-3-3-3-3-3-0-3-3-|--7p5\3-5p3p0-------------|
Eb|--------------------------|--------------7p5\3-5p3p0-|

Gb|--------------------------|--------------------------|
Db|--------------------------|--------------------------|
Ab|--------------------------|--------------------------|
Eb|--3-3-3-3-3-3-3-3-3-3-3-3-|--0-3-3-3-3-3-3-3-3-3-3-3-|

Gb|--------------------------|--------------------------|
Db|--------------------------|--------------------------|
Ab|--------------------------|--------------------------|
Eb|--2-2-2-2-2-2-2-2-2-2-2-2-|--2-2-2-2-2-2-2-2-2-2-2-2-|



Middle Eighth (written in splits of 1/4ths)

Gb|------|-----|--------|-------|------|-------|------|-----|
Db|*-----|-----|--------|-------|------|-------|------|-----|
Ab|*-----|-----|---5h7--|-------|-5h7--|-------|-5h7--|-----|
Eb|--0-0-|-0-0-|-0------|-0-0-0-|------|-0-0-0-|------|-0-0-|
     ^ ^   ^ ^                                                
Gb|-----|---|--------|-------|------|-------|------|-----|-----|
Db|-----|---|--------|-------|------|-------|------|-----|-----|
Ab|-----|---|---5h7--|-------|-5h7--|-------|-5h7--|-----|-----|
Eb|-0-0-|-0-|-0------|-0-0-0-|------|-0-0-0-|------|-0-0-|-0-0-|
    ^ ^   ^                                          ^ ^   ^ ^ 
                                                              _______
                                                             |1,2.
Gb|--------|-------|------|-------|------|-----|-------|-------|-----|
Db|--------|-------|------|-------|------|-----|-------|-------|-----|
Ab|---5h7--|-------|-5h7--|-------|-5h7--|-----|-------|--5h7--|-----|
Eb|-0------|-0-0-0-|------|-0-0-0-|------|-0-0-|-0-0-0-|-0-----|-0-0-|
                     ^                           ^ ^ ^
__________________________

Gb|------|-------|--------|
Db|------|-------|-------*|
Ab|-5h7--|-------|-5h7---*|
Eb|------|-0-0-0-|--------|
    _________________
   |3.
Gb|-------|-------|
Db|-------|-------|
Ab|-X-----|-------|
Eb|-------|-------|

4/4


Gb|---------------------------|--------------------------------|
Db|---------------------------|--------------------------------|
Ab|-------7---7-------8--7--5-|--------7---8-------5--8--7---5-|
Eb|-0-0-0---0---0-0-0---------|-0-0-0----0---0-0-0-------------|

Gb|---------------------------|--------------------------------|
Db|---------------------------|--------------------------------|
Ab|-------7---7-------8--7--5-|--------7---8-------5--8--7---5-|
Eb|-0-0-0---0---0-0-0---------|-0-0-0----0---0-0-0-------------|

Gb|---------------------------|--------------------------------|
Db|---------------------------|--------------------------------|
Ab|-------7---7-------8--7--5-|--------7---8-------5--8--7---5-|
Eb|-0-0-0---0---0-0-0---------|-0-0-0----0---0-0-0-------------|

Gb|---------------------------|--------------------------------|
Db|---------------------------|--------------------------------|
Ab|-------7---7-------8--7--5-|-------7------------------0-3-0-|
Eb|-0-0-0---0---0-0-0---------|-0-0-0---0-0-0--------0-3-------|

Solo 1
Gb|------------|-------------|------------|----------|
Db|------------|-------------|------------|----------|
Ab|---0----2---|--3-----7----|--8---------|----------|
Eb|------------|-------------|--------1---|--5----8--|
                              _______________________
                             |1.
Gb|------------|-------------|------------|---------|

Db|------------|-------------|------------|---------|
Ab|---0----2---|---3----7----|------------|---------|
Eb|------------|-------------|--4---------|-0-------|

Gb|-----------|-----------|------------|---------------|
Db|-----------|-----------|------------|---------------|
Ab|-----------|-----------|------------|---------------|
Eb|--4--0-0-0-|--7--0-0-0-|--10--0-0-0-|--12--12-12-12-|

Chorus

Gb|---------------------------|--------------------------|
Db|*--------------------------|--------------------------|
Ab|*--0-0-0-0-0-0-0-0-0-0-0-0-|--0-0-0-0-0-0-0-0-0-0-0-0-|
Eb|---------------------------|--------------------------|

Gb|--------------------------|--------------------------|
Db|--------------------------|--------------------------|
Ab|--3-3-3-3-3-3-3-3-3-0-3-3-|--7p5\3-5p3p0-------------|
Eb|--------------------------|--------------7p5\3-5p3p0-|

Gb|--------------------------|--------------------------|
Db|--------------------------|--------------------------|
Ab|--------------------------|--------------------------|
Eb|--3-3-3-3-3-3-3-3-3-3-3-3-|--3-3-3-3-3-3-3-3-3-3-3-3-|

Gb|--------------------------|---------------------------------------|
Db|--------------------------|---------------------------------------|
Ab|--------------------------|---------------------------------------|
Eb|--2-2-2-2-2-2-2-2-2-2-2-2-|--14-14-14-14-14-14-14-14-14-14-14-14\-|

Gb|--------------------------|--------------------------|
Db|--------------------------|--------------------------|
Ab|--0-0-0-0-0-0-0-0-0-0-0-0-|--0-0-0-0-0-0-7p5\3-5p3p0-|
Eb|--------------------------|--------------------------|

Gb|--------------------------|--------------------------|
Db|--------------------------|--------------------------|
Ab|--3-3-3-3-3-3-3-3-3-0-3-3-|--7p5\3-5p3p0-------------|
Eb|--------------------------|--------------7p5\3-5p3p0-|

Gb|--------------------------|--------------------------|
Db|--------------------------|--------------------------|
Ab|--------------------------|--------------------------|
Eb|--3-3-3-3-3-3-3-3-3-3-3-3-|--0-3-3-3-3-3-3-3-3-3-3-3-|

Gb|--------------------------|---------------------------|
Db|--------------------------|--------------------------*|
Ab|--------------------------|--------------------------*|
Eb|--2-2-2-2-2-2-2-2-2-2-2-2-|--2-2-2-2-2-2-2-2-2-2-2-2--|


Outro 3/4

Gb|----------|----------|----------|----------|----------|------------|
Db|----------|----------|----------|----------|----------|------------|
Ab|----------|----------|----------|----------|----------|------------|
Eb|-x-x--5-5-|-x-x--5-5-|-x-x--3-3-|-x-x--3-3-|-x-x--1-1-|-x-x-1-1----|

Gb|----------------|
Db|----------------|
Ab|----- 2-3-5-3-2-|
Eb|-x-x------------|

Hold notes
Gb|----------|----------|----------|----------|----------|------------|
Db|----------|----------|----------|----------|----------|------------|
Ab|----------|----------|----------|----------|----------|------------|
Eb|-5--------|-5--------|-3--------|-3--------|-1--------|-1----------|

Gb|------------|
Db|------------|
Ab|---2-3-5-3-2|
Eb|-1----------|

Stabs

Gb|----------|----------|----------|----------|----------|------------|
Db|----------|----------|----------|----------|----------|------------|
Ab|----------|----------|----------|----------|----------|------------|
Eb|-5--------|-5--------|-3--------|-3--------|-1--------|-1----------|
    ^          ^          ^          ^          ^          ^

Gb|-------------|-------------|-------------|
Db|-------------|-------------|-------------|
Ab|-------------|-------------|-------------|
Eb|-1-1-1-1-1-1-|-1-1-1-1-1-1-|------5------| 
                                     ^

KEY
************************************

| h       Hammer-on
| p       Pull-off
| /       Slide up
| \       Slide down
| ~       Vibrato
| PS/     Pick Scrape up
| PS\     Pick Scrape down
| TP      Tremolo picking
| PH      Pinch harmonic
| x       Mute note
| ^       Accent note
| b       Bend
| pb      Pre-bend
| gb      Gradual bend 
| br      Bend release
Comments