Alter Bridge - Broken Wings Chords & Tabs

 

Broken Wings Chords & Tabs

Alter Bridge Chords & Tabs

Version: 2 Type: Tab 0 ratings
1 star 2 stars 3 stars 4 stars 5 stars
comments

Broken Wings Tab

   
---------------------------------------------------------------------
			     Broken Wings - Alter Bridge
---------------------------------------------------------------------
Tabbed by: SteevOnator	
Email:steevonator@cableone.net		

Tuning: Db,Ab,Db,Gb,Bb,Eb

Effects: Seems to be a chorus of some sort

e|------7----------------------------|
B|------7----------------------------|
G|------9b10r9--7-------7---6--------|
D|---------------9---/9---9----------|
A|0~~~~------------------------------|
E|-----------------------------------|

then... improv this scale
it'll sound real similar
until the verse

e|----7---9--10--|
B|----7---8--10--|
G|-6--7---9------|
D|----7---9------|
A|----7---9------|
E|---------------|

Verse:
[ Tab from: http://www.guitartabs.cc/tabs/a/alter_bridge/broken_wings_tab_ver_2.html ]
e|---------------------------------------------------------------------|
B|--------------------------------------------------------------0------|
G|---------0-----------------0----------------0-------------------0----|
D|---0-------0---0----0--------0---0----0-------0---0----0----------0--|
A|-----0-------0--------2--------2--------0-------0--------5----------5|
E|-0-----0----------2-----2-----------0-----0----------5-----5---------|

Still working on the prechorus...its sounds tough

Chorus:
  On Broken Wings im fallin' and it won't be long....
  Basically just D,A,B,G
e|--------------------------------------------2--------------|
B|----------------------3-----------10--------2-------8------|
G|----------------------2-----------9---------4-------7------|
D|----------------------0-----------7---------4-------5------|
A|----------------------0-----------7---------2-------5------|
E|----------------------0-----------7-----------------5------|




| /  slide up
| \  slide down
| h  hammer-on
| p  pull-off
| ~  vibrato
| +  harmonic
| x  Mute note
=======================================================================
Comments