Alpha Blondy And The Solar System - Peace In Liberia Chords & Tabs

 

Peace In Liberia Chords & Tabs

Alpha Blondy And The Solar System Chords & Tabs

Version: 1 Type: Bass Tab 0 ratings
1 star 2 stars 3 stars 4 stars 5 stars
comments

Peace In Liberia Bass Tab

Artist: Alpha Blondy & the Solar System
Song: Peace in Liberia
Album: Masada
Tabbed By: TrippingMajor
email: gotklorine@gmail.com

This is a very little known reggae tune, but the bass line is pretty cool and very chill 
as all reggae generally is. I would definitely recomend you buy this song, anyway, 
learn and enjoy.


Intro (really let the A# ring at the end of each time through)

G------------------------------------------------|
D----8--6--4--3--1-------------------------------|2x
A-----8--6--4--3--4-0-3-1------------------------|
E------------------------------------------------|

[ Tab from: http://www.guitartabs.cc/tabs/a/alpha_blondy_and_the_solar_system/peace_in_liberia_btab.html ]
Verse (basically the whole song with a few variations, but ill leave that to you guys to 
figure out, it's not hard at all.)

G------------------------------------------|
D-------8------------------6---6-6-6-------|
A----------------------------6--------6----|
E--4-6----1--6-6-6-1--2-4------------------|

G------------------------------------------|
D-------8---8-8-8---------6---6-6-6--------|
A--------8-------8-----------6---------6---|
E--4-6--------------2-4--------------------|


Like I said, there are slight variations, and at some parts, it stays on the first part 
of the riff twice, but that's easy to just listen and figure out.
Comments