Alove For Enemies - Broken Pledge Chords & Tabs

 

Broken Pledge Chords & Tabs

Alove For Enemies Chords & Tabs

Version: 1 Type: Tab 0 ratings
1 star 2 stars 3 stars 4 stars 5 stars
comments

Broken Pledge Tab

This is the tab for "Broken Pledge" by Alove for Enemies, a Long Island based band who
has just recently released their 2nd album (The Harvest) on Popular Underground Hardcore
label, Facedown Records. This tab is off of their debut cd on Strike Fist Records...which
is a branch of Facedown Records.

Alove For Enemies
"Broken Pledge"
Off of the EP "Broken Pledge" on StrikeFist/Facedown Records

>-Let Ring
.- Palm Mute

Drop C Tuning

Intro (0:02-0:09)
-----------------------------------|
-----------------------------------|
-----------------------------------|
0>---------------------------------|
0>---------------------------------|
0>---------------------------------|

(0:09-0:12)
(First Guitar Only)
-----------------------------------|
-----------------------------------|
-----------------------------------|
-----------------------------------|
-----------------------------------|
0000000000000000-------------------|
................

Both Guitars (0:15-0:24)
-----------------------------------|
-----------------------------------|
--------------------656------------|
--------------------xxx------------|
--------------------434------------|
0000000000000000-------------------|
................

First Breakdown (0:24- 0:48)

-------------------------------------------|
-------------------------------------------|
------------7-5-8--------------------------|
00>---------x-x-x--------------------------|
00>---------5-3-6--------------------------|
00>----------------------------------------|
..

Verse (0:48-1:13) Play that several times
--------------------------------------------|---|
--------------------------------------------|---|
7/5/8---------------------------------------|00-| Play this after every third
x-x-x-0-0-0-0-------------------------------|44-| time
5/3/6-0-0-0-0-------------------------------|---|
------0-0-0-0-------------------------------|---|
      . . . .
[ Tab from: http://www.guitartabs.cc/tabs/a/alove_for_enemies/broken_pledge_tab.html ]
Little Bridge Part, 1 guitar (1:15-1:21...palm mute here, then 1:22-1:42 is both 
palm muting at this point, timing changes closer to the end of this part, listen to the song to hear)
------------------------------------------------|
------------------------------------------------|
------------------------------------------------|
000000007556300000000755630000000075563000000000
000000007556300000000755630000000075563000000000
000000007556300000000755630000000075563000000000
........     ........     ........     .........

Bridge Leading to The Final Breakdown(1:44-2:04)
------------------------------------------------|
------------------------------------------------|
333322225555555533332222555555553333222255555555
xxxxxxxxxxxxxxxxxxxxxxxxxxxxxxxxxxxxxxxxxxxxxxxx
333322225555555533332222555555553333222255555555
------------------------------------------------

Little Horror Chord Part Between the bridge and Breakdown (2:05-2:19)
Let it Ring and play 4 times.

-
-
0
4
-
-


Breakdown (2:20- End)...Play the First Open Chord Part Twice as long then go into the 
fret and everything after that
----------------------------------------------------------------------|
----------------------------------------------------------------------|
----------------------------------------------------------------------|
0000-00-000-00-0000-00-000-1111-11-1111-11-111-11-32353-00-000-00-000-|
0000-00-000-00-0000-00-000-1111-11-1111-11-111-11-32353-00-000-00-000-|
0000-00-000-00-0000-00-000-1111-11-1111-11-111-11-32353-00-000-00-000-|
..................................................      .............

Lyrics:

Why Has Your Faith gone to nothing?
Always pretending that you have made a stand
Leaving all this behind to dissapear
I know your reasons, Your claims,
I see an Answer
Get Back and Fight
Where Have You Gone?
What Have you Done?
When will you know?
This is for him
Pick up your cross get back in the fight
Comments