Almafuerte - Sentir Indiano Chords & Tabs

 

Sentir Indiano Chords & Tabs

Almafuerte Chords & Tabs

Version: 1 Type: Tab 0 ratings
1 star 2 stars 3 stars 4 stars 5 stars
comments

Sentir Indiano Tab

   
Sentir Indiano - ALMAFUERTE

Intro: (3 veces)

e|----------------------------------------------------------------------|
B|----------------------------------------------------------------------|
G|----7--7--------------------------------------------------------------|
D|----7--7--------3-----------------------------------------------------|
A|----5--5--3--5-----5--------3--3-----3--------------------------------|
E|----------------------3--5--------5-----5--3--1-----------------------|

e|----------------------------------------------------------------------|
B|----------------------------------------------------------------------|
G|----7--------------7--------------------7-----------------------------|
D|----7--------3-----7--------3-----3--5--7--------3--------------------|
A|----5--3--5-----5--5--3--5-----5--------5--3--5-----5--5--3-----------|
E|-------------------------------------------------------------5--3--1--|

D5 G5 C5 D5
Sentir indiano en mi coraz?n, canci?n ha parido.
Para el que siente o quiere sentir, orgullo nativo.

F5 C5 G5 D5
Del malinche es la maldici?n, del huinca el gualicho.
Del Dios blanco el terrorismo, Satan?s y Cristo.

e|----------------------------------------------------------------------|
B|----------------------------------------------------------------------|
G|----7--7--------------------------------------------------------------|
D|----7--7--------3-----------------------------------------------------|
A|----5--5--3--5-----5--------3--3-----3--------------------------------|
E|----------------------3--5--------5-----5--3--1-----------------------|

D5 G5 C5 D5
Madre tierra, padre sol, ni demonio ni se?or.
Pareciera m?s coherente, adorarlos nuevamente.

F5 C5 G5 D5
Que el enga?o santurr?n, de los muertos vivos.
Que este rumbo destructivo, o el miedo al castigo.

Estribillo:

A#5 F5 A5 D5
Sentimiento indiano, orgullo nativo.
Han parido este canto en el coraz?n mio.
Que exaltar tu origen, aborigen intenta.
Sangre nueva de la raza que a?n ser libre sue?a.

SOLO con estribillo [A#5 F5 A5 D5]
[ Tab from: http://www.guitartabs.cc/tabs/a/almafuerte/sentir_indiano_tab.html ]
e|----------------------------------------------------------------------|
B|----------------------------------------------------------------------|
G|----7--7--------------------------------------------------------------|
D|----7--7--------3-----------------------------------------------------|
A|----5--5--3--5-----5--------3--3-----3--------------------------------|
E|----------------------3--5--------5-----5--3--1-----------------------|

e|----------------------------------------------------------------------|
B|----------------------------------------------------------------------|
G|----7--------------7--------------------7-----------------------------|
D|----7--------3-----7--------3-----3--5--7--------3--------------------|
A|----5--3--5-----5--5--3--5-----5--------5--3--5-----5--5--3-----------|
E|-------------------------------------------------------------5--3--1--|

D5 G5 C5 D5
Madre tierra, padre sol, Dioses vivos hoy por hoy.
Grandes testigos silentes, de la humanidad inconsciente.


F5 C5 G5 D5
Y su af?n devorador, de infierno y suplicio.
Del progreso bendecido, por Dioses tra?dos.


A#5 F5 A5 D5
Sentimiento indiano, orgullo nativo.
Han parido este canto en el coraz?n mio.
Que exaltar tu origen, aborigen intenta.
Sangre nueva de la raza que a?n ser libre sue?a.

e|----------------------------------------------------------------------|
B|----------------------------------------------------------------------|
G|----7--7--------------------------------------------------------------|
D|----7--7--------3-----------------------------------------------------|
A|----5--5--3--5-----5--------3--3-----3--------------------------------|
E|----------------------3--5--------5-----5--3--1-----------------------|

F5 C5 G5 D5
Del malinche es la maldici?n, del huinca el gualicho.
Del Dios blanco el terrorismo, Satan?s y Cristo.

A#5 F5 A5 D5
Sentimiento indiano, orgullo nativo.
Han parido este canto en el coraz?n mio.
Que exaltar tu origen, aborigen intenta.
Sangre nueva de la raza que a?n ser libre sue?a.

e|----------------------------------------------------------------------|
B|----------------------------------------------------------------------|
G|----7--7--------------------------------------------------------------|
D|----7--7--------3-----------------------------------------------------|
A|----5--5--3--5-----5--------3--3-----3--------------------------------|
E|----------------------3--5--------5-----5--3--1-----------------------|

e|---------------------------------------------------------------------------|
B|---------------------------------------------------------------------------|
G|----7--------------7--------------------7-------------------------------7--|
D|----7--------3-----7--------3-----3--5--7--------3----------------------7--|
A|----5--3--5-----5--5--3--5-----5--------5--3--5-----5--5--3-------------5--|
E|-------------------------------------------------------------5--3--1-------|

------------------------
Comments