Allstar Weekend - Come Down With Love Chords & Tabs

 

Allstar Weekend Chords & Tabs

Version: 1 Type: Tab 0 ratings
1 star 2 stars 3 stars 4 stars 5 stars
comments

Come Down With Love Tab

   
Come Down With Love - AllStar Weekend
-----------------------------------------------------------------------------
Tabbed by: Mickey
Email: Mickeybunnag@hotmail.com

Tuning:
 Intro / Verse1
e|-----------------------------------------------------------|
B|-----------6----------6-----------6------------------------|
G|------3------3--2--------2--0----------0--2-----2----------|
D|--------3----------3-----------3-------------3-------------|    x7 Times
A|-----------------------------------------------------------|
E|-----------------------------------------------------------|
 Pre-Chorus
e|--------------------------------------------------------------------|
B|--------------------------------------------------------------------|
G|-------3----------5--5--5-------------------------------------------|  x1 Time
D|---3---3---7------5--5--5-------------------------------------------|
A|---3---1---7------3--3--3-------------------------------------------|
E|---1-------5--------------------------------------------------------|
Chorus
e|--------------------------------------            e| --------------|
B|--------------------------------------            B| --------------|
G|----------5--------7------------------ x2 Times   G|--5------------|
D|--3-------5--x7----7--x7----8---------            D|--5--x12-------| x1 Time
A|--3--x7---3--------5--------8--x7-----            A|--3------------|
E|--1-------------------------6----------           E|---------------|

***Repeat Intro x2times***

Verse 2
e|----------------------------------------------------|
B|----------------------------------------------------|
G|-3--3------------5--5-------------------------------|
D|-3--3----3--3----5--5----3--3--3--------------------|   x4 Times
A|-1--1----3--3----3--3----3--3--3--------------------|
E|---------1--1------------1--1--1--------------------|

*****Repeat Pre-Chorus x1 Time****

[ Tab from: http://www.guitartabs.cc/tabs/a/allstar_weekend/come_down_with_love_tab.html ]
*****Repeat Chorus x2 times****

**** Repeat Verse 2 x2 Time****

Bridge
e|--------------------------------------------------|
B|--------------------------------------------------|
D|---5------7-----8--------7------------------------| x1 Time
A|---5-x7---7-x7--8---x12--7-x7---------------------|
E|---3------5-----6--------5------------------------|

e|------------------------------------------|
B|------------------------------------------|    x1 Time
G|----------------------5--x-x-x-5-x--------|
D|---5-----7-----8------5--x-x-x-5-x--------| << Pm is easy(Listen to song)
A|---5-x7--7-x7--8-x7---3--x-x-x-3-x--------|
E|---3-----5-----6--------------------------|

e|--------------------------------------------------------------|
B|-------------------------------------   Play Right After ^^---|
G|--------------------------------------------------------------|
D|---6--7--8--10------------------------------------------------|  X1 Time
A|---6--7--8--10------------------------------------------------|
E----4--5--6--8-------------------------------------------------|

You can figure out the pm sequence by listening to the song VVVV
e|--------------------------------------------------------|
B|--------------------------------------------------------|
G|--------------5----5----7----7--------------------------|
D|----3----3----5----5----7----7----8--8------------------|   x1 Time
A|----3----3--xx3--xx3--xx5--xx5----8--8------------------|
E|-xx-1--xx1------------------------6--6------------------|

*****Repeat Chorus x3times*****

**** Repeat Verse 2 x4Times*****

Wooo :]
The song is done. Give me feedback please
Thanks


************************************

| /   slide up
| \   slide down
| h   hammer-on
| p   pull-off
| ~   vibrato
| +   harmonic
| x   Mute note
| b   Bend
| pb  Pre-bend
| br  Bend release
| pbr Pre-bend release
| brb Bend release bend

************************************
Comments