Allman Brothers Band - Melissa Chords & Tabs

 

Melissa Chords & Tabs

Allman Brothers Band Chords & Tabs

Version: 1 Type: Tab 1 rating
1 star 2 stars 3 stars 4 stars 5 stars
comments

Melissa Tab

   
#----------------------------------PLEASE NOTE---------------------------------#
#This file is the author's own work and represents their interpretation of the #
#song. You may only use this file for private study, scholarship, or research. #
#------------------------------------------------------------------------------##

Melissa
The Allman Brothers Band
From the Album-"Eat A Peach"
1972
Written by Gregg Allman
Tabbed by Ray Scheidler



Intro/Main Pattern:

[ Tab from: http://www.guitartabs.cc/tabs/a/allman_brothers_band/melissa_tab.html ]
     E                 F#m/C#
E---------------------------------------------
B---------------------------------------------
G----1---1--1--1--1------2---2--2--2--2-------
D----2---2--2--2--2------4---4--4--4--4-------
A----2---2--2--2--2------4---4--4--4--4-------
E---------------------------------------------


   G#m/D#              F#m/C#
E---------------------------------------------
B---------------------------------------------
G----4---4--4--4--4------2---2--2--2--2-------
D----6---6--6--6--6------4---4--4--4--4-------
A----6---6--6--6--6------4---4--4--4--4-------
E---------------------------------------------


Fill 1:

E-----9---7-----------------------------------
B-------------9---7---------------------------
G---------------------9---(9)-----------------
D---------------------------------------------
A---------------------------------------------
E---------------------------------------------
Comments