Allman Brothers Band - In Memory Of Elizabeth Reed Chords & Tabs

 

In Memory Of Elizabeth Reed Chords & Tabs

Allman Brothers Band Chords & Tabs

Version: 1 Type: Tab 0 ratings
1 star 2 stars 3 stars 4 stars 5 stars
comments

In Memory Of Elizabeth Reed Tab

In Memory of Elizabeth Reed 


E||--12-----5----------|--12-----10----------|--12-----5----------|
B||--12-----5----------|--12-----12----------|--12-----5----------|
G||--12-----5----------|--12-----11----------|--12-----5----------|
D||---------------------|----------------------|---------------------|
A||---------------------|----------------------|---------------------|
E||---------------------|----------------------|---------------------|

--12-----10----------|--12-----5----------|--12-----10--------------|
--12-----12----------|--12-----5----------|--12-----12----------8---|
--12-----11----------|--12-----5----------|--12-----11----7/9-------|
----------------------|---------------------|--------------------------|
----------------------|---------------------|--------------------------|
----------------------|---------------------|--------------------------|

|----------------------|--------------------------|-------------------|
|---8h10~--------------|--------8--8/10p--8-------|-------------------|
|*---------------------|----------------------9p7-|--9~---------------|
|*---------------------|--------------------------|-------------------|
|----------------------|--------------------------|-------------------|
|----------------------|--------------------------|-------------------|

---------------------|----------------------|---------------------------|
-----------------8---|--10b-------10r-------|--8--------7----8----10----|
------------7/9------|----------------------|---------------------------|
---------------------|----------------------|---------------------------|
---------------------|----------------------|---------------------------|
---------------------|----------------------|---------------------------|

---------------------|----------------------|--------------------------|
-----------------8---|--12--------10--------|--7b-------7r---8----10---|
------------9--------|----------------------|--------------------------|
---------------------|----------------------|--------------------------|
---------------------|----------------------|--------------------------|
---------------------|----------------------|--------------------------|

--------------------|---------------------|----------------------|
--------------------|---------------------|----------------------|
--9------9r---------|--9-------------5----|--7/9-----7------4~---|
--------------------|-------------7-------|----------------------|
--------------------|---------------------|----------------------|
--------------------|---------------------|----------------------|


------------------------|------------------------||---------------------|
------------------------|-------------------8----||--8/10---------------|
----5--7----4/5---------|-------------7/9-------*||---------------------|
--------------------5/7-|-----------------------*||---------------------|
------------------------|------7-----------------||---------------------|
------------------------|------------------------||---------------------|

-------------------------|-------------------|---------------------|
-----8--8/10-----8-------|-------------------|-----------------8---|
---------------------9-7-|--9~---------------|------------7/9------|
-------------------------|-------------------|---------------------|
-------------------------|-------------------|---------------------|
-------------------------|-------------------|---------------------|

--10~-------8~-------|--7~-------------7----8----|-------------------|
---------------------|-----------10--------------|--8~---------------|
---------------------|---------------------------|-------------------|
---------------------|---------------------------|-------------------|
---------------------|---------------------------|-------------------|
---------------------|---------------------------|-------------------|

---------------------|---------------------------|-------------------|
--12~-------10~------|--7b-------7r----8----10---|-------------------|
---------------------|---------------------------|--9~---------------|
---------------------|---------------------------|-------------------|
---------------------|---------------------------|-------------------|
---------------------|---------------------------|-------------------|

--------------------|----------------------|-----------------------|
--------------------|----------------------|-----------------------|
---------------5----|--7/9-----7------4~---|----5--7----7/9-----5--|
------------7-------|----------------------|-----------------------|
--------------------|----------------------|-----------------------|
--------------------|----------------------|-----------------------|

----------------------|--------------------------------|
----------------------|--------------------------------|
--------------4--5~---|--4-----------------------------|
------5/7~------------|---------5--------------5-------|
----------------------|----------------5/7--------7----|
----------------------|--------------------------------|

-------------------8--11--8------||---------------------------------|
------------7--10------------10--||----------8----------------------|
---------8-----------------------||*-------9---7--9-----------------|
--7--10--------------------------||*--10-------------10--10-7-------|
---------------------------------||---------------------------10-7--|
---------------------------------||---------------------------------|

------------------------------------||----------------------------------------|
---------8--------------------------||----------11----------------------------|
-------9---7--9--------------------*||-------12----10--12-----------------12--|
--10-------------10~---------------*||--13-----------------13--13-10--13------|
------------------------------------||----------------------------------------|
------------------------------------||----------------------------------------|

------------------------------------|--------------------------------|
----------11------------------------|---------8----------------------|
-------12----10--12-----------------|-------9---7--9-----------------|
--13-----------------13~------------|--10-------------10--10-7-------|
------------------------------------|--------------------------10-7--|
------------------------------------|--------------------------------|

--------------------------|----------------------------|-------------------------|
---------8----------------|--9----10--9----10--12--10--|--9---10--9---10---------|
-------9---7--9-----------|----------------------------|------------------8--9---|
--10-------------10~------|----------------------------|-------------------------|
--------------------------|----------------------------|-------------------------|
--------------------------|----------------------------|-------------------------|

----------------------------|----------------------------|
--9----10--9----10--12--10--|--9----10--9----10----------|
----------------------------|--------------------8---9---|
----------------------------|----------------------------|
----------------------------|----------------------------|
----------------------------|----------------------------|

--5--3----------------------x-x-|------------------------------------|
--------7--5--4----------8~-x-x-|--12--x-x-12-12--12---12--10-10-10--|
-----------------4--5----7~-----|--12--x-x-12-12--11---11--9--9--9---|
-------------------------6~-----|--14--x-x-14-14--12---12--10-10-10--|
-------------------------7~-----|------------------------------------|
--------------------------------|------------------------------------|

------------12-12---------------10--|----------12-12------10---12-12-x--|
--12--12-12-12-12--12---12--10------|--12------12-12--12--12---12-12-x--|
--12--12-12-12-12--11---11--9---12--|--12---12-12-12--11--11------------|
--14--14-14-14-14--12---12--10------|--14---14-14-14--12--12------------|
------------------------------------|-----------------------------------|
------------------------------------|-----------------------------------|

solo
------------------------------------|----------------------|--------------------|
-----12r----------------------------|-----12r--------------|--------------------|
--------------14~-------------------|----------------------|--------------------|
------------------------------------|--------------13~-----|------14~-----------|
------------------------------------|----------------------|--------------------|
------------------------------------|----------------------|--------------------|

************************************************************************

-----------------------|------------------5------|-------------------------|
-----------5-----------|-------------8-------8~--|--x--------5-5-----------|
----7b-------7--5--7~--|--x-x-7b-------7---------|-----7b--------7--5--7~--|
-----------------------|-------------------------|-------------------------|
-----------------------|-------------------------|-------------------------|
-----------------------|-------------------------|-------------------------|

************************************************************************ 

-----------------------------|----------------------------|
-----------------------------|----------------------------|
--x--------------5-54~---5--|----------------5-54~---5--|
-----7-7-7-7-7-7-------------|----7-7-7-7-7-7-------------|
-----------------------------|----------------------------|
-----------------------------|----------------------------|

************************************************************************

----------------------------|----------------------------|
----------------------------|----------------------------|
----------------5-54~---5--|----------------5-54~---5--|
----7-7-7-7-7-7-------------|----7-7-7-7-7-7-------------|
----------------------------|----------------------------|
----------------------------|----------------------------|

************************************************************************

----------------------------|-------------------------------|
----------------5-54~---5--|----------------5-54~---------|
--------5-54---------------|--------5-54-----------5-54--|
----7-7-------x-------------|----7-7-------7-------7--------|
----------------------------|-------------------------------|
----------------------------|-------------------------------|

************************************************************************

---------------------------|---------------------|------------------|
---------------------------|---------------------|------------------|
--5h-6--5--4-5--4--2h4-----|--------------2-4----|------------------|
------------------------3~-|-------------------2~|------------------|
---------------------------|---------------------|------------------|
---------------------------|---------------------|------------------|

************************************************************************

---------------------5---------|------------------------------|
-------------------5---8-5---5-|------------------------------|
---------------5-7---------8b--|--8-7-5---5-7-----------------|
--7-7--7--7--7-----------------|--------7------7--5~---5-5-5--|
--7----------------------------|---------------------7--------|
-------------------------------|------------------------------|

**************************************************************************

------------------------------|-----------------------------|
------------------------------|------------------5--54--5--|
------------x-x-x-5--54-x-x--|--x--------5--54------------|
--x-5--54--------------------|----5--54-------------------|
------------------------------|-----------------------------|
------------------------------|-----------------------------|

**************************************************************************
[ Tab from: http://www.guitartabs.cc/tabs/a/allman_brothers_band/in_memory_of_elizabeth_reed_tab.html ]
-------------------------|-------------------------|
----------4~--5----4--5--|----------4~--5----4--5--|
--4~--5----------5-------|--4~--5----------5-------|
-------------------------|-------------------------|
-------------------------|-------------------------|
-------------------------|-------------------------|

**************************************************************************

--7--------------------------------|-------------------------|
--7p5p4-5--5--7p5p4-5--5--7p5p4-5--|----------4~--5----4--5--|
-----------------------------------|--4~--5----------5-------|
-----------------------------------|-------------------------|
-----------------------------------|-------------------------|
-----------------------------------|-------------------------|

**************************************************************************

------------------------------|---------5-------------5--x-x-|
--------5---------------------|-------5---8-5-------5--------|
--x-7b----7-5---5-7p5---5--7--|--x-7b----------x-7b----------|
--------------7-------7-------|------------------------------|
------------------------------|------------------------------|
------------------------------|------------------------------|

**************************************************************************

---------5-----------------------|----------------------------------|
--x----5---8p5---5---------5-----|------5---------5-----------------|
----7b---------8---8-7-5-7b--8-7-|--5-7b--8-7-5-7b--8-7-5---5-7p5---|
---------------------------------|------------------------7-------7-|
---------------------------------|----------------------------------|
---------------------------------|----------------------------------|

**************************************************************************

---------------------------------|------------------------5-------7-|
---------------------------------|----------------------5---8-5-8---|
-----------------5---------------|------5---5-7p5---5-7b------------|
--5-7--7-7-7-7-7---7-5---5-7p5---|--5-7---5-------7-----------------|
-----------------------7-------7-|----------------------------------|
---------------------------------|----------------------------------|

**************************************************************************

------5----7----5----7----5--|----7----5-7p5---5-7p5---5-7p5---|
----8----x----8----8----8----|--8----8-------8-------8-------8-|
--x--------------------------|---------------------------------|
-----------------------------|---------------------------------|
-----------------------------|---------------------------------|
-----------------------------|---------------------------------|

**************************************************************************

--5-7p5---5-7p5---5-7p5---5-7p5---|--5----8-----7---5-8p5---5----|
--------8-------8-------8-------8-|----8-----8------------8---8b-|
----------------------------------|---------------x--------------|
----------------------------------|------------------------------|
----------------------------------|------------------------------|
----------------------------------|------------------------------|

**************************************************************************

------5-------------------|---------5-----------------------|
--------8--5------5-------|-------5---5---5---5-------------|
--------------7b----7p5---|--5-7b-------7b--7b--8-7-5-------|
------------------------7-|---------------------------7-5-7-|
--------------------------|---------------------------------|
--------------------------|---------------------------------|

------------------------------------|--------------------------------|
------------------------8---8---8---|--------------------------------|
-----------5---5-7b-------7b--7b----|--7r-5--------------------------|
--7~-7~------7----------------------|-------7-5------5---5-7p5---5-5-|
------------------------------------|-----------7--7---7-------7-----|
------------------------------------|--------------------------------|

**************************************************************************

------------------------|-----------------------|------------------------|
-------------4~----5~---|-------------5~--------|-------------5~---------|
------4-5-7-------------|------4-5-7------------|------4-5-7-------------|
--7---------------------|--7--------------------|--7---------------------|
------------------------|-----------------------|------------------------|
------------------------|-----------------------|------------------------|

----12--x-12--10-----10--8--8----|-------12---12--10--8--8-----5--5-----||
----------x---x------------------|--------------------------------------||
---------------------------------|-------------------------------------*||
---------------------------------|-------------------------------------*||
---------------------------------|--------------------------------------||
---------------------------------|--------------------------------------||


----------------------------------------|------------------------------|
--7b---------8r---7---------------------|--8---5h----8p5~--------5--7--|
----------------------------------------|--------------------0---------|
----------------------------------------|------------------------------|
----------------------------------------|------------------------------|
----------------------------------------|------------------------------|

-------------------------------------|-----------------------------|
--7b---8--8--7b-8--8-7b-8---8--8b--8-|--7--8---5~-----5~-----------|
-------------------------------------|-------------7---------5-7b--|
-------------------------------------|--------------------7--------|
-------------------------------------|-----------------------------|
-------------------------------------|-----------------------------|

----------------------------|-------------------------|
----------------------------|----5--------------------|
---9-9-9-7r-5-7--5~-----5-7b|-------7r-5-7~-------5-7b|
----------------------7-----|-------------------7-----|
----------------------------|-------------------------|
----------------------------|-------------------------|

---------------------------|------------------------------|
---5-----------------------|----------------------5---5---|
-----7b-7r-5-7--5~-----5-7-|--7b-7/9b-97p5-----5-5-5---5-|
---------------------7-----|----------------7-------------|
---------------------------|------------------------------|
---------------------------|------------------------------|

**************************************************************************

--------------------------------------|-------------------------|
--8p5---8p5---8p5---8p5---8b-8r---5-8b|---8b--8r-5------------7-|
------5-----5-----5-----5-------------|------------7~-----2/9---|
--------------------------------------|-------------------------|
--------------------------------------|-------------------------|
--------------------------------------|-------------------------|

**************************************************************************

--10p7-10p7-10p7------------------|--10p7-10p7-10p7---------------10~-|
-----------------10p7-8---------5-|-----------------10p7-8------------|
------------------------7~-7~-----|------------------------7~---7-----|
----------------------------------|-----------------------------------|
----------------------------------|-----------------------------------|
----------------------------------|-----------------------------------|

--10p7-x--10p7-10p7-10p7-10p7-10p7--10b|---10b----10-8-10---8----10-8b--|
---------------------------------------|----------------------10--------|
---------------------------------------|------------------0-------------|
---------------------------------------|--------------------------------|
---------------------------------------|--------------------------------|
---------------------------------------|--------------------------------|

**************************************************************************

----------------8---------8--8b-|------------------------------8--|
--10---8-10p8---8------10-8--8b-|----10-8-10p8---------------8----|
--------------9----14--0--------|--------------9-7-7--2-5/9------|
--------------------------------|---------------------------------|
--------------------------------|---------------------------------|
--------------------------------|---------------------------------|

**************************************************************************

----------------8--------8--8b-|-------------------------0-12-|
--10---8-10p8---8--10--8-8--8b-|----10-8-10p8------------0-0--|
--------------9----------------|--------------9-7----4-------|
-------------------------------|------------------------------|
-------------------------------|------------------------------|
-------------------------------|------------------------------|

**************************************************************************

--15p12-15p12-15p12-15p12-15p12-15p12-15p12-15p12-|
--------------------------------------------------|
--------------------------------------------------|
--------------------------------------------------|
--------------------------------------------------|
--------------------------------------------------|

**************************************************************************

--15p12-15p12-15p12-15p12-15p12-15p12-15p12-15p12-15p|
-----------------------------------------------------|
-----------------------------------------------------|
-----------------------------------------------------|
-----------------------------------------------------|
-----------------------------------------------------|

**************************************************************************

--15p12-15-15p12-15-15p12-15-15p12-15-15p12-15-15p12-15-15p12-15-15p12-15-|
--------------------------------------------------------------------------|
--------------------------------------------------------------------------|
--------------------------------------------------------------------------|
--------------------------------------------------------------------------|
--------------------------------------------------------------------------|

**************************************************************************
--15p12-15-15p12-15-15p12-15-15-15b-15b----15-|------------------------|
-----------------------------------------------|-------------4~----5~---|
-----------------------------------------------|------4-5-7-------------|
-----------------------------------------------|--7---------------------|
-----------------------------------------------|------------------------|
-----------------------------------------------|------------------------|

|---------------------------------|
|----------8----------------------|
|*-------9---7--9-----------------|
|*--10-------------10--10-7-------|
|---------------------------10-7--|
|---------------------------------|

---------------------------||----------------------------------------|
---------8-----------------||----------11----------------------------|
-------9---7--9-----------*||-------12----10--12-----------------12--|
--10-------------10~------*||--13-----------------13--13-10--13------|
---------------------------||----------------------------------------|
---------------------------||----------------------------------------|


------------------------------|--------------------------------|
----------11------------------|---------8----------------------|
-------12----10--12-----------|-------9---7--9-----------------|
--13-----------------13~------|--10-------------10--10-7-------|
------------------------------|--------------------------10-7--|
------------------------------|--------------------------------|


---------------------------|----------------------------|
--9h---10--9~---10---------|--9h---10--9~---10--12--10--|
--------------------8--9---|----------------------------|
---------------------------|----------------------------|
---------------------------|----------------------------|
---------------------------|----------------------------|

--------------------------|--------7---------------||
--9h---10--9~---10--------|------8---8--10---------||
--------------------8--9--|--9---------------------||
--------------------------|------------------------||
--------------------------|------------------------||
--------------------------|------------------------||
Comments