Allman Brothers Band - Blue Sky Chords & Tabs

 

Blue Sky Chords & Tabs

Allman Brothers Band Chords & Tabs

Version: 1 Type: Tab 3 ratings
1 star 2 stars 3 stars 4 stars 5 stars
comments

Blue Sky Tab

   
artist: allman bros
title: blue sky
tabbed by: andrew lukis (safarial@aol.com)

here's the intro and chords but i'm still working on the solo.
(x2)
e:----------------------------------------------------12----------------------------------------------------
b:-----------------------------------------------12-------14----------------------9-------------------------
g:---------------------------9---11/13--14-------------------11b13--11---------9-----9--11p9--11------------
d:------------------9--11-----------------------------------------------------------------------------------
a:----7---9/11----------------------------------------------------------------------------------------------
e:----------------------------------------------------------------------------------------------------------

e:-------------------------------------------------------------------------------------------------------
b:-------------------------------------------------------------------------------------------------------
g:--11/13----9--11p9-------9--11p9----------9--11p9---11/13----------------------------------------------
d:--------------------12-------------11------------------------------------------------------------------
a:-------------------------------------------------------------------------------------------------------
e:-------------------------------------------------------------------------------------------------------

chords for the first verse are:
(strum) / / /   / / /
e       b   a         
0       2      0
0       4      2
1       4      2
2       4      2
2       2      0
0
[ Tab from: http://www.guitartabs.cc/tabs/a/allman_brothers_band/blue_sky_tab.html ]
e     b     a     e     e     b     a(4measures)

e:---------------------------------------------------------------------------------------------------
b:---------------------------------------------------------------------------------------------------
g:--11b13---11--9------------------------------------------------------------------------------------
d:---------------------11--9-------------------------------------------------------------------------
a:-------------------------------11--9--11--9/7--------------7-7-------------------------------------
e:-------------------------------------------------------7h9-----------------------------------------

repeat chords then:

e:-------------------------------------------------------------------------------------------------
b:-------------------------------------------------------------------------------------------------
g:------------------------------------9---11/13--11--9---------------------------------------------
d:----------------------------9--11----------------------------------------------------------------
a:----------7---9p7--9/11--------------------------------------------------------------------------
e:--7---9------------------------------------------------------------------------------------------

chords:
b    a    e    a    b    a    e    a    a    b(one stroke)
e(2 measures)    a(2measures)    e    a....
repeat til end then repeat beginning, listen for changes in riffs, but it's all up there.
Comments