Allister - Westbound Chords & Tabs

 

Westbound Chords & Tabs

Allister Chords & Tabs

Version: 1 Type: Tab 0 ratings
1 star 2 stars 3 stars 4 stars 5 stars
comments

Westbound Tab

Westbound by Allister
Amazing song.  It was easy to figure out and easy to play but it is a great song
with great lyrics.  Best album I own.  Check em out www.allisterrock.com.
The very end of the solo is very hard to hear so that may not be totally correct
but Im pretty sure everything else is

~= let ring
p= pull off


INTRO
e----------------|----------------------------------------------------
b----------------|----------------------------------------------------
g----10----------|------14--------------------------------------------
d-----X----------|-------X--------------------------------------------
a-----8----------|------12--------------------------------------------
e----------------|----------------------------------------------------

Play each of these once for half of the intro and strum repeatedly


VERSE
e---------------------------------------------------------------------
b---------------------------------------------------------------------
g---------------------------------------------------------------------
d-----------------3----5----------------------------------------------
a-3~~~~~~~~~~~~~--5----3----------------------------------------------
e-1~~~~~~~~~~~~~------------------------------------------------------

verse 1-  Driving through nights on empty roads, Hoping the clubs promote our
shows, Wasting days with endless naps, Finding ways to fill the gaps 
verse 2-   Reading to save our numbing minds, Meeting friends well leave behind,
Lay on the loft and trace the stars,  Start the day in no ones arms


PRECHORUS
e---------------------------------------------------------------------
b---------------------------------------------------------------------
g---------------------------------------------------------------------
d-------------55555555--77777777--55555555-----------55555555---------
a---33333333--33333333--55555555-33333333--3333333333333333---------
e---11111111--------------------------------11111111-----------------
[ Tab from: http://www.guitartabs.cc/tabs/a/allister/westbound_tab.html ]
prechorus 1-  Another word game with the band, Another losing rummy hand,
Another night slept in the van
prechorus 2-  Another night without a sell, Another meal at Taco Bell,
Another story I can tell

CHORUS
e-------------------------------------------------------------|
b-------------------------------------------------------------|
g-------------------------------------------------------------|
d----------5555-7777-5555-----------------------------------|  X4
a---3333---3333--5555--3333-----------------------------------|
e---1111------------------------------------------------------|

chorus-  Im forced awake again in time to take the stage, and as my dream world
fades, another takes its place, I look into the crowd and see my self through
stares, Back when I hoped someday Id be the one up there


SOLO (GUITAR 2 PLAYS SAME THING AS CHORUS)
e-----------------|---------------8|-------------------|----------------|
b----10-8---------|----8-10-8------|------8-10-8-------|-----8-10-8----8|
g-----------10-10-|7-10--------10--|10-10--------10-10-|7-10--------10--|
d-----------------|----------------|-------------------|----------------|
a-----------------|----------------|-------------------|----------------|
e-----------------|----------------|-------------------|----------------|

e-----------8-|-----------------8|-------|-----------8| 
b---10-8------|-------8-10-8-----|-------|-8-10p8-----| 
g--------10---|-10-10--------10--|-10-10-|--------10--|Repeat last measure
d-------------|------------------|-------|------------| until solo ends  
a-------------|------------------|-------|------------|
e-------------|------------------|-------|------------|


OUTRO
e---------------------------------------------------------------------
b---------------------------------------------------------------------
g------5~~~~~~~~~~~~~~~~~~~~~~~---------------------------------------
d------3~~~~~~~~~~~~~~~~~~~~~~~---------------------------------------
a--3------------------------------------------------------------------
e--1------------------------------------------------------------------

Let ring while bass does outro


ORDER
INTRO
VERSE
PRE-CHORUS
CHORUS
VERSE
PRE-CHORUS
CHORUS
SOLO
CHORUS (PALM MUTED)
CHORUS
OUTRO
Comments