Allister - Westbound Chords & Tabs

 

Westbound Chords & Tabs

Allister Chords & Tabs

Version: 1 Type: Bass Tab 0 ratings
1 star 2 stars 3 stars 4 stars 5 stars
comments

Westbound Bass Tab

Allister - Westbound
Album: Last Stop Suburbia
Tabbed by: Andrew Lassise

Start on second chord
Intro
G |--------------------------------------|
D |--------------------------------------|
A |-5/8-8-8-8-8-8-8-8-5-5-5-5-3-3-3-3--3-|
E |--------------------------------------|
Verse
G |----------------------------------------|
D |----------------------------------------|
A |----------------------5-5-5-5---3-3-3-3-|
E |-1-1-1-1--1-1-1-1-----------------------|
Pre Chorus
G |---------------------------------------------|
D |---------------------------------------------|
A |-1-1-1-1--1-1-1-1--3-3-3-3--5-5-5-5--5-5-5-5-|
E |---------------------------------------------|
[ Tab from: http://www.guitartabs.cc/tabs/a/allister/westbound_btab.html ]
G |----------------------------------------|
D |----------------------------------------|
A |--3-3-3-3--1-1-1-1--1-1-1-1--3-3-3-3--3-|
E |----------------------------------------|
Chorus:
G |------------------------------------|
D |------------------------------------|
A |----------1-1-1-1--5-5-5-5--3-3-3-3-|
E |-1-1-1-1----------------------------|
Bass Break 
G |---------3--------------------------|---------3-------------------5-3-2-|
D |-3-3-3-3---3-3-3-3--0-0-0-0---------|-3-3-3-3---3-3-3-3---0-0-0-0-------|
A |----------------------------3-3-3-3-|-----------------------------------|
E |------------------------------------|-----------------------------------|

Solo
G |---------------------|
D |---------------------|
A |------1-1---5-5--3-3-|
E |-1-1-----------------|
End Solo
G |-------|
D |-------|
A |-------|
E |-1~----|   
Play half way into chorus (I look into the crowd)
G |--------------------------------------|
D |--------------------------------------|
A |----------1-1-1-1---5-5-5-5--3-3-3-3--|
E |-1-1-1-1------------------------------|

G |--------------------------------|
D |--------------------------------|
A |----------1-1-1-1---5-5-5-5--3--|
E |-1-1-1-1------------------------|
Ending 
G |--------3--------------------------|---------3------------------5-3-2---|
D |3-3-3-3---3-3-3-3--0-0-0-0---------|-3-3-3-3---3-3-3-3---0-0-0-0------3~|
A |---------------------------3-3-3-3-|------------------------------------|
E |-----------------------------------|------------------------------------|
Comments