Allister - Scratch Chords & Tabs

 

Scratch Chords & Tabs

Allister Chords & Tabs

Version: 3 Type: Tab 0 ratings
1 star 2 stars 3 stars 4 stars 5 stars
comments

Scratch Tab

-------------------------------------------------------------------------------
			     Scratch - Allister
-------------------------------------------------------------------------------

Tabbed by: Brian
Email: guitar_freak7@msn.com

Tuning:Standard              (Figure OUt Strumming Pattern)
 
Intro              

Guitar 1
e|----------------------------| X2
B|----------------------------|
G|------4---8---11---10---6---|
D|--4---4---8---11---10---6---|
A|--4---2---6---9----8----4---|
E|--2-------------------------|

Guitar 2 (Keep switching back and forth between these octave chords)
e|----------------| 
B|----------------|
G|--11--10--------|
D|----------------|
A|--9---8---------|
E|----------------|


Verse

Guitar 1 & Guitar 2
e|------------------| X2
B|------------------|
G|------6---4-------|
D|--4---6---4-------|
A|--4---4---2-------|
E|--2---------------|


Pre-Chorus

Guitar 1 & Guitar 2
e|---------------------------|
B|---------------------------|
G|--4---6-------6---4-----6--|
D|--4---6---4---6---4-----6--|
A|--2---4---4---4---2-----4--|
E|----------2----------------|


Chorus
[ Tab from: http://www.guitartabs.cc/tabs/a/allister/scratch_tab_ver_3.html ]
Guitar 1 & Guitar 2
e|--------------------|  X2
B|--------------------|
G|-------4---8---6----|
D|--4----4---8---6----|
A|--4----2---6---4----|
E|--2-----------------|


Intro (Cut in half)

Verse

Pre-Chorus

Chorus

Bridge

Guitar 1 & Guitar 2
e|--------------------| X2
B|--------------------|
G|--4---8---6---------|
D|--4---8---6---------|
A|--2---6---4---------|
E|--------------------|
  

Bridge Cont.

Guitar 1
e|-----------|
B|-----------|
G|--4---6----|
D|--4---6----|
A|--2---4----|
E|-----------|

Guitar 2
e|-------------------|
B|-------------------|
G|-8---10---11---13--|
D|-------------------|
A|-6---8----9----11--|
E|-------------------|


Pre-Chorus

Guitar 1 & Guitar 2
e|-------------------|  X2
B|-------------------|
G|--8---4---8--6-----|
D|--8---4---8--6-----|
A|--6---2---6--4-----|
E|-------------------|


Pre-Chorus Cont.

e|---------------|
B|---------------|
G|-4--6----------|
D|-4--6----------|
A|-2--4----------|
E|---------------|
pm .  .


Chorus



End on 

e|--------|
B|--------|
G|--------|
D|-4------|
A|-4------|
E|-2------|



If you want any songs tabbed out e-mail me.
Comments