Allister - Scratch Chords & Tabs

 

Scratch Chords & Tabs

Allister Chords & Tabs

Version: 1 Type: Bass Tab 0 ratings
1 star 2 stars 3 stars 4 stars 5 stars
comments

Scratch Bass Tab

   
Standard Tuning

G |--------------------------------------------------------------------|
D |--------------------------------------------------------------------|
A |------------------2-2-2-2-2-2-2-2--6-6-6-6-6-6-6-6--4-4-4-4-4-4-4-4-|
E |-2-2-2-2-2-2-2-2----------------------------------------------------|

Verse
G |------------------------------------|
D |------------------------------------|
A |----------4-4-4-4--2-2-2-2--4-4-4-4-|
E |-2-2-2-2----------------------------|

Pre Chorus
G |---------------------------------------|-----------------------------|
D |---------------------------------------|-----------------------------|
A |-2-2-2-2-2---4-4-4-4-4-----4-2--2-2-2-2|-2-2-2-2-2-2-2-2---4-2-------|
E |------------------------2--------------|------------------------6-4--|

Chorus:
G |------------------------------------------------------------|
D |------------------------------------------------------------|
A |----------------2--2--2-2-2-2--6--6--6-6-6-6--4--4--4-4-4-4-|
E |-2--2--2-2-2-2----------------------------------------------|
[ Tab from: http://www.guitartabs.cc/tabs/a/allister/scratch_btab.html ]
Bridge
G |------------------------|--------------------------|
D |------------------------|--------------------6h8h6-|
A |-2-2-2-2-6-4-4---4h6h4--|-2-2-2-2-6-4-4------------|
E |------------------------|--------------------------|

G |--------------------------------|------------------------4-4----4-4--|
D |--------------------------------|----------------------4-----4------4|
A |2-2-2-2-2-2-2-2-4-4-4-4-4-4-4-4-|-6-6-6-6---6-6-6-6--2---------------|
E |--------------------------------|------------------------------------|

G I-----------------------6|---------|----------------------4-|---------|
D I---------------------6--|6--6-4-3-|--------------------4---|-4--4-3-1|
A I-6-6-6-6--6-6-6-6--4----|---------|-6-6-6-6-6-6-6-6--2-----|---------|
E I------------------------|---------|------------------------|---------|

G |--------------------------------|------------------------------------|
D |--------------------6---4-3-4-3-|--------------------------4---4-3-1-|
A |6-6-6-6-6-6-6-6--4-------------6|-2-2-2-2-2-2-2-2--4-4-4-4-----------|
E |--------------------------------|------------------------------------|


G |-----|
D |-----|
A |-2/9-|
E |-----|

Order:
Intro - 2x
Verse - 2x
Pre Chorus - 1x
Chorus - 2x
Intro - 1x
Verse - 2x
Pre Chorus - 1x
Chorus - 2x
Bridge - 1x ( Whole Thing )
Chorus - 2x
Comments