Allister - Radio Player Chords & Tabs

 

Radio Player Chords & Tabs

Allister Chords & Tabs

Version: 1 Type: Tab 0 ratings
1 star 2 stars 3 stars 4 stars 5 stars
comments

Radio Player Tab

Allister - Radio Player
By:Andrew Mcshan(Guitarguyx182@aol.com)

Intro
(Guitar 1)
e|--------------------------------------------------------|
B|---0h5p0h5p0h5-0h5p0h5p0h5--5-4-7-4-5-4-----------------|
G|--------------------------------------------------------|
D|--------------------------------------------------------|
A|--------------------------------------------------------|
E|--------------------------------------------------------|
(Guitar 2)
e|--------------------------------------------------------|
B|--------------------------------------------------------|
G|-4------------------------------------------------------|
D|-4--------4------2-----4--------------------------------|
A|-2--------4------2-----4--------------------------------|
E|----------2------0-----2--------------------------------|

Verse
e|--------------------------------------------------------|
B|--------------------------------------------------------|
G|-4-4----------------------------------------------------|
D|-4-4--2--4-4--------------------------------------------|
A|-2-2--2--4-4--------------------------------------------|
E|------0--2-2--------------------------------------------|
[ Tab from: http://www.guitartabs.cc/tabs/a/allister/radio_player_tab.html ]
Pre Chorus
e|--------------------------------------------------------|
B|--------------------------------------------------------|
G|-----4-------4------4-----------------------------------|
D|-2---4---2---4---2--4----4------------------------------|
A|-2---2---2---2---2--2----4------------------------------|
E|-0-------0-------0-------2------------------------------|

Chorus
e|--------------------------------------------------------|
B|--------------------------------------------------------|
G|-4------------------------------------------------------|
D|-4-----6--------2------4--------------------------------|
A|-2-----6--------2------4--------------------------------|
E|-------4--------0------2--------------------------------|

Btidge
e|--------------------------------------------------------|
B|--------------------------------------------------------|
G|-4------------------------------------------------------|
D|-4------2-------4---------------------------------------|
A|-2------2-------4---------------------------------------|
E|--------0-------2---------------------------------------|

e|-------0--------0----------0----------------------------|
B|-0--0-----5--5------6--6--------------------------------|
G|--------------------------------------------------------|
D|--------------------------------------------------------|
A|--------------------------------------------------------|
E|--------------------------------------------------------|
Comments