Allister - Overrated Chords & Tabs

 

Overrated Chords & Tabs

Allister Chords & Tabs

Version: 1 Type: Tab 0 ratings
1 star 2 stars 3 stars 4 stars 5 stars
comments

Overrated Tab

Verse 1 is the same as the Intro

Intro
"Well I think the time has come..."
e|-----------------------------------|----------|
B|-----------------------------------|----------|
G|---------7-7-------------7-7-------|----------|
D|-7-7-7---7-7---5-5-5-5---7-7---x-3-|----7-x-2-| 
A|-7-7-7---5-5---5-5-5-5---5-5-------|----7-----|
E|-5-5-5---------3-3-3-3-------------|----5-----|

    Play to lyrics with breaks


Verse 1   
"Because I Pored My Heart Into..."
e|---------------------------------|----------|
B|---------------------------------|----------|
G|--------7-7------------7-7-------|----------|
D|-7-7-7--7-7--5-5-5-5---7-7---x-3-|----7-x-2-| 
A|-7-7-7--5-5--5-5-5-5---5-5-------|----7-----|
E|-5-5-5-------3-3-3-3-------------|----5-----|

Verse 2
"Because the last thing..." 
e|---------------------------|----------------|
B|---------------------------|----------------|
G|------7-7------------------|----------------|
D|-5-5--7-7--7-7---x-3-------|--9---8---5-----| 
A|-5-5--5-5--7-7-------------|--9---8---5-----|
E|-3-3-------5-5-------------|--7---6---3-----|

Verse 1 Again 
"Because I Pored My Heart Into..."  
e|---------------------------------|----------|
B|---------------------------------|----------|
G|--------7-7------------7-7-------|----------|
D|-7-7-7--7-7--5-5-5-5---7-7---x-3-|----7-x-2-| 
A|-7-7-7--5-5--5-5-5-5---5-5-------|----7-----|
E|-5-5-5-------3-3-3-3-------------|----5-----|

Verse 2 Again
"Because the last thing..." 
e|---------------------------|----------------|
B|---------------------------|----------------|
G|------7-7------------------|----------------|
D|-5-5--7-7--7-7---x-3-------|--9---8---5-----| 
A|-5-5--5-5--7-7-------------|--9---8---5-----|
E|-3-3-------5-5-------------|--7---6---3-----|


[ Tab from: http://www.guitartabs.cc/tabs/a/allister/overrated_tab.html ]
Chorus
"Because I think...."    
e|-------------------|--------------------------|
B|-------------------|--------------------------|
G|-7-7---------------|-7---------------|-7-7-7-7|
D|-7-7--5-5--7-7--x8-|-7-|-7-7-7-7|--5-|-7-7-7-7| 
A|-5-5--5-5--7-7-----|-5-|-7-7-7-7|--5-|-5-5-5-5|
E|------3-3--5-5-----|---|-5-5-5-5|--3----------|
                         
                        Scrap Up an Down for the |7-7-7-7| this bits
                                                 |7-7-7-7|
                                                 |5-5-5-5|
Chorus Again

"This Whole...."  
e|-------------------|--------------------------|
B|-------------------|--------------------------|
G|-7-7---------------|-7---------------|-7-7-7-7|
D|-7-7--5-5--7-7--x8-|-7-|-7-7-7-7|--5-|-7-7-7-7| 
A|-5-5--5-5--7-7-----|-5-|-7-7-7-7|--5-|-5-5-5-5|
E|------3-3--5-5-----|---|-5-5-5-5|--3----------|
                         
"I Dont Remember What..."
e|------------------------------------|
B|------------------------------------|
G|----7------7----------xxxxxxxxxx----|
D|-7--7----7-7-5----7---xxxxxxxxxx----|
A|-7--5----7-5-5----7---xxxxxxxxxx----|
E|-5-------5---3----5---xxxxxxxxxx----|


Intro Again
No Lyrics
e|---------------------------------|--------|
B|---------------------------------|--------|
G|--------7-7------------7-7-------|--------|
D|-7-7-7--7-7--5-5-5-5---7-7---x-3-|----7---| x 2
A|-7-7-7--5-5--5-5-5-5---5-5-------|----7---|
E|-5-5-5-------3-3-3-3-------------|----5---|
  
 Play faster than the intro at the start of the song, With shorter Breaks



Chorus Again

"This Whole...."  
e|-------------------|---------|
B|-------------------|---------|
G|-7-7---------------|---------|
D|-7-7--5-5--7-7--x8-|-7--5----|
A|-5-5--5-5--7-7-----|-7--5----|
E|------3-3--5-5-----|-5--3----|

Fill before last chorus
e|---------------------------------------|
B|---------------------------------------|
G|-14-14-14-14-14-14-14-14---------------|
D|--x--x--x--x--x--x--x--x---------------|
A|-12-12-12-12-12-12-12-12---------------|
E|---------------------------------------|

Chorus Again

"This Whole...."  
e|-------------------|
B|-------------------|
G|-7-7---------------|
D|-7-7--5-5--7-7--x6-| 
A|-5-5--5-5--7-7-----|
E|------3-3--5-5-----|


An thats it , thats the whole song i think it's 99% correct. If you have any
questions , comments, or corrections send them to global_pranksetr@hotmail.com
Comments