Allister - Moper Chords & Tabs

 

Moper Chords & Tabs

Allister Chords & Tabs

Version: 1 Type: Chords 0 ratings
1 star 2 stars 3 stars 4 stars 5 stars
comments

Moper Chords

   
hello i am tabbing this song because every tab i've seen (1) has sucked and i always find it hard to find allister tabs.
email comments to uglyguy468@yahoo.com


intro:
e|---------------------------------5-4-2------------------|
B|----2h3-5-5-5-2h3-5-5-5-2h3-5-5-5------2h3-5-5-5-2h3-5-5|
G|--------------------------------------------------------|
D|--------------------------------------------------------|
A|--------------------------------------------------------|
E|--------------------------------------------------------|

Intro cont’d
e|---------------5-4-2------------------------------------|
B|----5-2h3-5-5-5-----2h3-5-5-5-2h3-5-5-5---0-2-3-2-0-----|
G|----------------------------------------2---------------|
D|--------------------------------------------------------|
A|--------------------------------------------------------|
E|--------------------------------------------------------|

Verse:
A, E, F#, D (2x)
[ Tab from: http://www.guitartabs.cc/tabs/a/allister/moper_crd.html ]
Prechorus:
Middle E, D (2x)

Chorus:
A, F#, E, D (4x)

Bridge:
e|--------------------------------------------------------|
B|--------------------------------------------------------|
G|-----------5-7-7-7-7---------7-9-9-9-9---------5-7-7-7-7|
D|----9-9-9--5-7-7-7-7--7-7-7--7-9-9-9-9--9-9-9--5-7-7-7-7|
A|----9-9-9--3-5-5-5-5--7-7-7--5-7-7-7-7--9-9-9--3-5-5-5-5|
E|----7-7-7-------------5-5-5-------------7-7-7-----------|

Bridge cont’d
e|--------------------------------------------------------|
B|--------------------------------------------------------|
G|--9-9-9-9-9-9-9-9-7-------------------------------------|
D|--9-9-9-9-9-9-9-9-7-------------------------------------|
A|--7-7-7-7-7-7-7-7-5-------------------------------------|
E|--------------------------------------------------------|

Order:
Intro
Verse
Prechorus
Chorus
Verse
Prechorus
Chorus
Bridge
Chorus (2x i think)

Thats the entire tab and i hope its right and hope it helps you with this extremely easy song.
Comments