Allister - Matchsticks Chords & Tabs

 

Matchsticks Chords & Tabs

Allister Chords & Tabs

Version: 1 Type: Bass Tab 0 ratings
1 star 2 stars 3 stars 4 stars 5 stars
comments

Matchsticks Bass Tab

Intro

G-----------|-----------|-----------|---------------|
D-----------|-----------|-----------|---------------|
A-----5>--7>|-----5>--7>|-----5>--7>|-----5>--7>6~7>|
E--5>-------|--5>-------|--5>-------|--5>-----------|

Verse 1

G-------|------|---------------------------------|
D-------|------|------------4-5-4---6-7-6-4------|
A-----5>|----7>|----4-5-4-5-------7---------7-5-4|
E--5>---|-5>---|--5------------------------------|

G-------|------|---------------------------------|
D-------|------|------------4-5-4---6-7-9-7-6-4--|
A-----5>|----7>|----4-5-4-5-------7-------------7|
E--5>---|-5>---|--5------------------------------|

Chorus 1

G----------------|----------------|--------------|
D----------------|----------------|--------------|
A--5>--7>--------|--5>--7>--------|--5>----7>----|
E----------5>4~5>|----------5>4~5>|--------------|

G----------------|-----------------|--------------------------|
D----------------|------------7-5-4|--------------------------|
A-----7>--5>4~5~4|-----7>--5>------|-----7>--5>--7>----7-5-4-2|
E--5>------------|--5>-------------|--5>----------------------|

Verse 2

G-------|------|---------------------------------|
D-------|------|------------4-5-4---6-7-6-4------|
A-----5>|----7>|----4-5-4-5-------7---------7-5-4|
E--5>---|-5>---|--5------------------------------|
[ Tab from: http://www.guitartabs.cc/tabs/a/allister/matchsticks_btab.html ]
G-------|------|---------------------------------|
D-------|------|------------4-5-4---6-7-9-7-6-4--|
A-----5>|----7>|----4-5-4-5-------7-------------7|
E--5>---|-5>---|--5------------------------------|

Chorus 2

G----------------|----------------|--------------|
D----------------|----------------|--------------|
A--5>--7>--------|--5>--7>--------|--5>----7>----|
E----------5>4~5>|----------5>4~5>|--------------|

G----------------|-----------------|--------------------------|
D----------------|------------7-5-4|----------------------9>--|
A-----7>--5>4~5~4|-----7>--5>------|-----7>--5>4~5~4--7>------|
E--5>------------|--5>-------------|--5>----------------------|

Interlude

G-------|-------|--------|------------|
D----6--|-----7-|--------|---6-7-9-7--|
A--4>-4>|--5>--5|------7>|-7---------7|
E-------|-------|--5>----|------------|

G-------|-----7-------|----------------|
D----6--|----------7--|----------------|
A--4>-4>|--5>---5>--5>|------7>--5>--7>|
E-------|-------------|--5>------------|

Chorus/Ending

G----------------|-----------------|----------------|-----------|
D----------------|------------7-5-4|----------------|-----------|
A-----7>--5>4~5~4|-----7>--5>------|-----7>--5>4~5~4|-----7>--5>|
E--5>------------|--5>-------------|--5>------------|--5>-------|

G-------------------||
D-------------------||
A--7-5-4-2-5-4-2-4--||
E------------------5||
Comments