Allister - Freshman Girl Chords & Tabs

 

Freshman Girl Chords & Tabs

Allister Chords & Tabs

Version: 1 Type: Tab 0 ratings
1 star 2 stars 3 stars 4 stars 5 stars
comments

Freshman Girl Tab

Allister - Freshman Girl
By:Andrew Mcshan
[ Tab from: http://www.guitartabs.cc/tabs/a/allister/freshman_girl_tab.html ]
Intro
e|-----------------------------------------------------------|
B|-----------------------------------------------------------|
G|--------------5-5------------5-----------------------------|
D|---5-5-5--5---5-5--5-5-5-----5--3--------------------------|
A|---5-5-5--5---3-3--5-5-5-----3--3--------------------------|
E|---3-3-3--3--------3-3-3--------1--------------------------|
Verse
e|-----------------------------------------------------------|
B|-----------------------------------------------------------|
G|--------------5-5---------------5-----------------5--------|
D|--5-5--5------5-5---5---5--5----5---3--5--5--5----5--3-----|
A|--5-5--5------3-3---5---5--5----3---3--5--5--5----3--3-----|
E|--3-3--3------------3---3--3--------1--3--3--3-------1-----|

e|-----------------------------------------------------------|
B|-----------------------------------------------------------|
G|---------5---------------------------5------7--------------|
D|-3-------5--------5-----3-----2------5------7--------------|
A|-3-------3--------5-----3-----2------3------5--------------|
E|-1----------------3-----1-----0----------------------------|
Chorus
e|-----------------------------------------------------------|
B|-----------------------------------------------------------|
G|-------------------5---------------------------------------|
D|--5-----2-----7----5---------------------------------------|
A|--5-----2-----7----3---------------------------------------|
E|--3-----0-----5--------------------------------------------|
Comments