Allister - Fraggle Rawk Chords & Tabs

 

Fraggle Rawk Chords & Tabs

Allister Chords & Tabs

Version: 3 Type: Bass Tab 0 ratings
1 star 2 stars 3 stars 4 stars 5 stars
comments

Fraggle Rawk Bass Tab

allister
fraggle rock(cover)
tabbed by Daniel182

this song is real fun to play and real easy to play, the other tabs
were good but just a bit off. please rate this tab

intro
|-----------|
|-----------|
|-3-3-3-1h2-|x4
|-----------|

pre verse
|---------------------------------|
|---------------------------------|
|-33333333--------55555555--------|x1
|---------11111111--------33-33-3-|

verse 1
|------------------|
|------------------|
|-3333--------3333-|x4
|-----1--33-11-----|
[ Tab from: http://www.guitartabs.cc/tabs/a/allister/fraggle_rawk_btab_ver_3.html ]
pre verse
|---------------------------------|
|---------------------------------|
|-33333333--------55555555--------|x1
|---------11111111--------33-33-3-|

verse 2
|------------------|  |--------------|
|------------------|  |--------------|
|-3333--------3333-|x3|-3333---------|x1
|-----1--33-11-----|  |-----1---3~~~-|

pre verse
|---------------------------------|
|---------------------------------|
|-33333333--------55555555--------|x1
|---------11111111--------33-33-3-|

Verse 3
|--------------------|  |----------------------------------|
|--------------------|  |----------------------------------|
|-3333----------3333-|x3|-3333----------3~------3~-------3-|x1
|-----1111-33-11-----|  |-----1111-33-11---33-11--3--------|
Comments