Allister - Flypaper Chords & Tabs

 

Flypaper Chords & Tabs

Allister Chords & Tabs

Version: 3 Type: Tab 0 ratings
1 star 2 stars 3 stars 4 stars 5 stars
comments

Flypaper Tab

   
Hey, yo, check it
This is a tab for Flypaper, I got most of it from the other Flypaper tab, and just
added in my own bits that I figured out.
Enjoy
Winno winnorulz@hotmail.com

Allister
John Armada/Kyle Lewis=Guitar 1(Rhythm)
Tim Rogner=Guitar 2(Lead)

Key:
()=Harmonics (maybe Pintch Harmonics)
.= Palm Muted
/=Slide Up
\=Slide Down
*=Let Ring
h=Hammer on
p=Pull off


  Intro:
  Both Guitars:
       (Walk home...) | (This pain..)
E|--------------------|-(19)-(15)-| <- Lead
B|--------------------|-----------|
G|--------------------|-----------|
D|------5-5-------7-7-|-----------|
A|-5-5--3-3--7-7--5-5-|-----------|
E|-3-3-------5-5------|-----------|

  Verses:
                               |(Next time around...) 
E|-----------------------------|-----------------|
B|-----------------------------|--10-10-10-10-10-|
G|-----------------------------|-9--9--9--9--9---|<- I think Tim plays that
D|-------5-5-5-5-------7-7-7-7-|-----------------| Until the mini Solo/Riff
A|-5-5-5-3-3-3-3-7-7-7-5-5-5-5-|-----------------|
E|-3-3-3---------5-5-5---------|-----------------|
  .............................

  Mini Solo/Riff after first Verse:
  (Rhythm keeps playing main verse chords (no palm mute))
E|------------------------------------------------------|
B|------------------------------------------------------|
G|-9-7*---4-2-0-2-4-2-0-0--7-9*-11-12*--4-2-0-2-4-2-0-0-|
D|------------------------------------------------------|
A|------------------------------------------------------|
E|------------------------------------------------------|

E|-----------------------------------------|
B|-----------------------------------------|
G|-7-9*---4\2--4-2-0-0--7-9--9-11-12--12-12|
D|-----------------------------------------|
A|-----------------------------------------|
E|-----------------------------------------|

  Pre Chorus:
Guitar 1:|Guitar 2:
E|-------|-------|
B|-------|-------|
G|-------|-7-6-5-|
D|-7-6-5-|-------|
A|-5-4-3-|-5-4-3-|
E|-------|-------|

(Both Guitars)
(You broke me guard..)
E|---------------------------------|
B|---------------------------------|
G|---------------------------------|
D|-5-5-5-5-5-5-5-5---------7-7-7-7-|
A|-3-3-3-3-3-3-3-3-5-5-5-5-5-5-5-5-|
E|-----------------3-3-3-3---------|

 Chorus:
 (Both Guitars)                    |(Lead)
    (I Start running now...)       |(Now others pay...) 
E|---------------------------------|----------------------|
B|---------------------------------|----------------------|
G|---------------------------------|-12-----11----9-----7-|
D|---------7-7-7-7-5-5-5-5-7-7-7-7-|----------------------|
A|-5-5-5-5-5-5-5-5-3-3-3-3-5-5-5-5-|-10------9----7-----5-|
E|-3-3-3-3-------------------------|----------------------|
[ Tab from: http://www.guitartabs.cc/tabs/a/allister/flypaper_tab_ver_3.html ]
  Tiny Riff before second verse:
  (Rhythm just plays main verse chords)
E|---------------------------------------------------------|
B|---------------------------8p7h8p7h8p7h8p7h8p7h8p7--8h11-|
G|-7p6h7p6h7p6h7p6h7p6h7p6---------------------------------|
D|---------------------------------------------------------|
A|---------------------------------------------------------|
E|---------------------------------------------------------|

Verse

PreChorus

Chorus

Solo:
(Lead)
E|---------------------------------------------------------|
B|-------------------------------------------10-10-10------|
G|-9-9-9--11-9-12--12-12-12-12---9-9-9--11-9---------9-9-9-|
D|---------------------------------------------------------|
A|---------------------------------------------------------|
E|---------------------------------------------------------|

E|-------------------------------------------------------------|
B|----------------------------------10-10-10-10-10-10-10-10-10-|
G|-9-9-9--11-9-12-12-12-12-12-12-12----------------------------|
D|-------------------------------------------------------------|
A|-------------------------------------------------------------|
E|-------------------------------------------------------------|

E|------------------------|
B|-10-10-10--12-10---10---|
G|-----------------12--12-|
D|------------------------|
A|------------------------|
E|------------------------|

(Rhythm)
E|----------------------------------------------|
B|----------------------------------------------|
G|----------------------------------------------|
D|----------------------------------------------|
A|-2-2-2--4--5-5-5-5-5--2-2-2--4--7-7-7-7-4-4-4-|
E|-0-0-0--2--3-3-3-3-3--0-0-0--2--5-5-5-5-2-2-2-|

E|---------------------------------------------------|
B|---------------------------------------------------|
G|---------------------------------------------------|
D|---------------------------------------------------|
A|-2-2-2--4--5-5-5-5-5-5-7-7-7-7-7--7-7-7--9--7--5-5-|
E|-0-0-0--2--3-3-3-3-3-3-5-5-5-5-5--5-5-5--7--5--3-3-|

Bridge:
The bridge is just the Chorus with somg Palm Muting

End Chorus:
(Lead)
E|----------------------------------------------|  /
B|----------------------------------------------| /
G|-12-12-12--11/12-12-12--11/12-12-12-12-12--14-|/_ _ _ _ Repeat x2
D|----------------------------------------------|\
A|-10-10-10---9/10-10-10---9/10-10-10-10-10--12-| \
E|----------------------------------------------|  \

E|-------------------------------------|
B|-------------------------------------|
G|-12--11--9--7---12--11--9--11--12-12-|
D|-------------------------------------|
A|-10---9--7--5---10---9--7---9--10-10-|
E|-------------------------------------|

Well, thats Flypaper for ya!
Just listen to the song alot and you'll catch on
Sorry if my Tab is a bit hard to understand/read
If you have any questions/corrections, email me at winnorulz@hotmail.com

Winno winnorulz@hotmail.com















Comments