Allister - Flypaper Chords & Tabs

 

Flypaper Chords & Tabs

Allister Chords & Tabs

Version: 2 Type: Tab 0 ratings
1 star 2 stars 3 stars 4 stars 5 stars
comments

Flypaper Tab

   
this is my first song im tabbing so if it sucks im sorry and if it is good well
than hah im a good tabber....well any questions instant message me on aim
(Midnite isaac90) or yahoo instant messenger(Deepskatr23)

Intro [Walk home.. Drowning these memories in the rain..]
e|--------------------------------------------------|
B|--------------------------------------------------|
G|-----5-5-----7-7----------------------------------|
D|-5-5-5-5-7-7-7-7----------------------------------|
A|-5-5-3-3-7-7-5-5----------------------------------|
E|-3-3-----5-5--------------------------------------|

Then Guitar 1 does with harmonics {To transfer this pain]
e|-19-15--------------------------------------------|
B|--------------------------------------------------|
G|--------------------------------------------------|
D|--------------------------------------------------| X2
A|--------------------------------------------------|
E|--------------------------------------------------|

Then The Guitar does [Your gone]
e|--------------------------------------------------|
B|--------------------------------------------------|
G|---------5-5-5-5---------7-7-7-7------------------|
D|-5-5-5-5-5-5-5-5-7-7-7-7-7-7-7-7------------------| X2
A|-5-5-5-5-3-3-3-3-7-7-7-7-5-5-5-5------------------|
E|-3-3-3-3---------5-5-5-5--------------------------|
PM--------------------------------

Then Unpalm-Muted
e|--------------------------------------------------|
B|--------------------------------------------------|
G|---------5-5-5-5---------7-7-7-7-(7-6-5)----------|
D|-5-5-5-5-5-5-5-5-7-7-7-7-7-7-7-7-(7-6-5)----------| X4
A|-5-5-5-5-3-3-3-3-7-7-7-7-5-5-5-5-(5-4-3)----------| ()= 4th 
E|-3-3-3-3---------5-5-5-5--------------------------|     time to next part
[ Tab from: http://www.guitartabs.cc/tabs/a/allister/flypaper_tab_ver_2.html ]
Verse [You broke my guard with guiltless eyes]
e|-----------------------------------------------------------------|
B|-----------------------------------------------------------------|
G|-5-5-5-5-----7-7-5-5-5-5-----7-7-5-5-5-5-----7-7-5-5-5-5-7-7-7-7-|
D|-5-5-5-5-5-5-7-7-5-5-5-5-5-5-7-7-5-5-5-5-5-5-7-7-5-5-5-5-7-7-7-7-|
A|-3-3-3-3-5-5-5-5-3-3-3-3-5-5-5-5-3-3-3-3-5-5-5-5-3-3-3-3-5-5-5-5-|
E|---------3-3-------------3-3-------------3-3---------------------|

Chorus [I start running, I start running away]
e|--------------------------------------------------|
B|--------------------------------------------------|
G|-----7-7-5-5-7-7----------------------------------| X4
D|-5-5-7-7-5-5-7-7----------------------------------|
A|-5-5-5-5-3-3-5-5----------------------------------|
E|-3-3----------------------------------------------|
Solo
|-------------------------------------------------------------------|
|----------------------------------------------10-10----------------|
|---9-9-9--9-11-12-11-11-11-11-11--9-9-9-11-12-------12-11-9--------|
|-------------------------------------------------------------------|
|-------------------------------------------------------------------|
|-------------------------------------------------------------------|

|-------------------------------------------------------------------|
|-------------------------------------------------------------------|
|---9-9-9--9-11-12-11-11-11-11-11-12-12-12-12-12-12-12-14-14-14-14--|
|-------------------------------------------------------------------|
|-------------------------------------------------------------------|
|-------------------------------------------------------------------|

|-------------------------------------------------------------------|
|-------12-10----10-------------------------------------------------|
|-14-14-------12----12~---------------------------------------------|
|-------------------------------------------------------------------|
|-------------------------------------------------------------------|
|-------------------------------------------------------------------|
Comments