Allister - Flypaper Chords & Tabs

 

Flypaper Chords & Tabs

Allister Chords & Tabs

Version: 1 Type: Tab 0 ratings
1 star 2 stars 3 stars 4 stars 5 stars
comments

Flypaper Tab

Allister - Flypaper
By:Andrew Mcshan (Guitarguyx182@aol.com)

Intro/Verse
e|------------------------------|
B|------------------------------|
G|---5----7---------------------|
D|-5-5--7-7---------------------|
A|-5-3--7-5---------------------|
E|-3----5-----------------------|

Pre Chorus
e|------------------------------|
B|------------------------------|
G|-5----7-----------------------|
D|-5-5--7-----------------------|
A|-3-5--5-----------------------|
E|---3--------------------------|
[ Tab from: http://www.guitartabs.cc/tabs/a/allister/flypaper_tab.html ]
Chorus
e|------------------------------|
B|------------------------------|
G|-----7-7--5-5-7-7-------------|
D|-5-5-7-7--5-5-7-7-------------|
A|-5-5-5-5--3-3-5-5-------------|
E|-3-3--------------------------|

Guitar 2
e|------------------------------|
B|------------------------------|
G|-12-11--9--7------------------|
D|-x--x---x--x------------------|
A|-10-9---7--5------------------|
E|------------------------------|

Bridge
e|------------------------------|
B|------------------------------|
G|-12--11-9--11-----------------|
D|-x---x--x--x------------------|
A|-10--9--7--9------------------|
E|------------------------------|
Comments