Allister - Dont Think Twice Chords & Tabs

 

Dont Think Twice Chords & Tabs

Allister Chords & Tabs

Version: 1 Type: Bass Tab 0 ratings
1 star 2 stars 3 stars 4 stars 5 stars
comments

Dont Think Twice Bass Tab

   
Intro/Verse part 1
G |-------------------------------------------------|
D |-------------------------------------------------|
A |-0-0-0-0-0-0-4-4-4-4-4-4-5-5-5-5-5-5-7-7-7-7-5-4-|
E |-------------------------------------------------|

G |-------------------------------------------------|
D |-------------------------------------------------|
A |-0-0-0-0-0-0-4-4-4-4-4-4-5-5-5-5-5-5-7-7-7-7-/14-|
E |-------------------------------------------------|

Verse part 2
G |-------------------------------------------------|
D |-------------------------------------------------|
A |-0-0-0-0-0-0-4-4-4-4-4-4-5-5-5-5-5-5-7-7-7-7-5-4-|
E |-------------------------------------------------|

G |-------------------------------------------------|
D |-------------------------------------------------|
A |-0-0-0-0-0-0-4-4-4-4-4-4-5-5-5-5-5-5-7-7-7-7-7-7-|
E |-------------------------------------------------|

Pre Chorus:
G |-------------------------------------------------|
D |-------6---6-------7----7-------9----9-8-6-9-8-6-|
A |-4-4-4---4---5-5-5---5----7-7-7---7--------------|
E |-------------------------------------------------|
[ Tab from: http://www.guitartabs.cc/tabs/a/allister/dont_think_twice_btab.html ]
G |----------------------------------------------------|
D |-------6---6-------7----7-------9----9-/14-14-13-11-|
A |-4-4-4---4---5-5-5---5----7-7-7--7------------------|
E |----------------------------------------------------|

Chorus:
G |-------------------------------------------------|
D |-------------------------------------------------|
A |-4-4-4-4-4-4-5-5-5-5-5-5-7-7-7-7-7-7-5-5-5-5-5-5-|
E |-------------------------------------------------|

G |-------------------------------------------------|
D |-------------------------------------------------|
A |-0-0-0-0-0-0-5-5-5-5-5-5-7-7-7-7-7-7-5-5-5-5-5-5-|
E |-------------------------------------------------|

G |--------------------------------|-----------------------------------|
D |--------------------------------|-----------------------------------|
A |0-0-0-0~--4-4-4-4~---5-5-5-5-5-5|0-0-0-0-0-0-7-7-7-7-7-7-5-5-5-5-5-5|
E |--------------------------------|-----------------------------------|
Bridge
G |--------------------------------------------|
D |--------------------------------------------|
A |-0-0-0-0~---4-4-4-4~----5-5-5-5~----7-7-7-7~|
E |--------------------------------------------|

                                                          
Order:
Intro 1x
Verse part 1 1x
Verse part 2 1x
Pre Chorus 1x
Chorus 1x
Bridge 2x
Verse part 1 1x
Verse part 2 1x
Pre Chorus 1x
Chorus 1x
Bridge 2x
Verse part 2 1x
Pre Chorus 1x
Chorus 1x
Comments