Allister - Chasing Amy Chords & Tabs

 

Chasing Amy Chords & Tabs

Allister Chords & Tabs

Version: 1 Type: Tab 0 ratings
1 star 2 stars 3 stars 4 stars 5 stars
comments

Chasing Amy Tab

Allister - Chasing Amy 
By:Andrew Mcshan (Guitarguyx182@aol.com)
[ Tab from: http://www.guitartabs.cc/tabs/a/allister/chasing_amy_tab.html ]
Intro
e|----------------------------------------------------------------------|
B|----------------------------------------------------------------------|
G|-----8------10-------------8------10---------8-----10---10-10/9/10/9--|
D|--8--8------10--------8----8------10----8----8-----10---10-10/9/10/9--|
A|--8--6------8---------8----6------8-----8----6-----8----8--8-/7/8-/7--|
E|--6-------------------6-----------------6-----------------------------|
Verse
e|----------------------------------------------------------------------|
B|----------------------------------------------------------------------|
G|---------8-------10--------8-----10----8---10-------------10--10------|
D|-8-------8-------10---8----8-----10--8-8---10-----8--8----10--10------|
A|-8-------6-------8----8----6-----8---8-6---8------8--8----8---8-------|
E|-6--------------------6--------------6------------6--6----------------|
Pre Chorus
e|----------------------------------------------------------------------|
B|----------------------------------------------------------------------|
G|--8----10---8-------10----------8------10-----------------------------|
D|--8----10---8-------10----8-----8------10-----------------------------|
A|--6----8----6-------8-----8-----6------8------------------------------|
E|--------------------------6-------------------------------------------|
Chorus
e|----------------------------------------------------------------------|
B|----------------------------------------------------------------------|
G|--------------------8----------------8------------8-----10-10-10------|
D|------8-------5-----8----8----5------8----8--5----8-----10-10-10------|
A|------8-------5-----6----8----5------6----8--5----6-----8--8--8-------|
E|------6-------3----------6----3-----------6--3------------------------|
Comments