Allister - Better Late Than Forever Chords & Tabs

 

Better Late Than Forever Chords & Tabs

Allister Chords & Tabs

Version: 1 Type: Bass Tab 0 ratings
1 star 2 stars 3 stars 4 stars 5 stars
comments

Better Late Than Forever Bass Tab

Standard Tuning

Intro x2
G |----------------------------------|
D |----------------------------------|
A |---------4-4-4-4--5-5-5-5--7-7-7-7|
E |5-5-5-5---------------------------|

Verse x1

G |----------------------------------|-------------------------|-------|
D |----------------------------------|-------------------------|--6-7-9|
A |---------4-4-4-4--5-5-5-5-5-5-5--7|--------4-4-4-4--5-5-5-5-|7------|
E |5-5-5-5---------------------------|5-5-5-5------------------|-------|

G |------------------------------------|----------------------------------|
D |------------------------------------|----------------------------------|
A |---------4-4-4-4--5-5-5-5-5-5-5-5--7|---------4-4-4-4--5-5-5-5--7-7-7-7|
E |5-5-5-5-----------------------------|5-5-5-5---------------------------|

Pre Chorus x1

G |------------------------------------|
D |------------------------------------|
A |-4-4-4-4--5-5-5-5--7-7-7-7--5-5-5-5-|
E |------------------------------------|
[ Tab from: http://www.guitartabs.cc/tabs/a/allister/better_late_than_forever_btab.html ]
G |---------------------------|-----------5/9|
D |---------------------------|------5-7-----|
A |4-4-4-4-4--5-5-5-5--7-7-7-7|5-7-----------|
E |---------------------------|--------------|

Chorus x2

G |-----------------------------------------------------------|-----------|
D |-----------------------------------------------------------|-----------|
A |--------4-4-4-4--5-5-5-5--7-7-7-7--5-5-5-5-5-5-5-5--7-7-7-7|7-5-4------|
E |5-5-5-5----------------------------------------------------|------8-7-5|

G |------------------------------------------------------------|
D |------------------------------------------------------------|
A |--------4-4-4-4--5-5-5-5--7-7-7-7--5-5-5-5-5-5-5-5--7-7-7-7-|
E |5-5-5-5-----------------------------------------------------|

Intro x2
Verse x1
Pre Chorus x1
Chorus x1

Bridge
G |-----------------------------------------------------------|
D |-----------------------------------------------------------|
A |-----5-5-5-5--7-----7-7---5-5-5------5-5-5-5--7-----7-7-7-7|
E |5-5-------------5-5-------------5-5-------------5-5--------|

G |---------------------|
D |---------------------|
A |5-5-5-5--------------|
E |-----------5-5-5-5--7|

Chorus x1
Intro x4

Outro
G |-------|
D |-------|
A |-------| 
E |--5-5--|

Thanks, please rate it after you learn it.
Comments