All Used Up - Hyper Holiday Chords & Tabs

 

Hyper Holiday Chords & Tabs

All Used Up Chords & Tabs

Version: 1 Type: Tab 0 ratings
1 star 2 stars 3 stars 4 stars 5 stars
comments

Hyper Holiday Tab

all used up 
ARE 
Rick Smith (guitaR/vocals)
Blake Hall (Bass)
Froggy (Drums)

visit our site at www.allusedup.cjb.net


INTRO

b---------------------5-----5----
g---5---5---5---5---5---5-------5
d-----------------3-------5------
a--3--3---5---5---------------5--
E--------------------------------

intro 2

g-5--7--10--7
d-5--7--10--7
a-3--5--8---5
E------------

chorus
 x5 x6
g-5-7-----
d-5-7--3-5
a-3-5--3-5
E------1-3
[ Tab from: http://www.guitartabs.cc/tabs/a/all_used_up/hyper_holiday_tab.html ]
verse
                     (---x2------)
g-5---------5---------5--7--10--7
d-5------3--5------3--5--7--10--7
a-3--5-3----3--5-3----3--5--8---5
E--------------------------------

bridge

g-5--7--10--7
d-5--7--10--7
a-3--5--8---5    (strum out)
E------------

Outro

b---5-----5-----5-----5-----5-----5----5----5------5
g-----5-----5-----5-----5-----5-----5----5----5-3--5
d-3-----5-----3-----5-----3-----5-----3----5-------3
a---------------------------------------------------
E---------------------------------------------------
Comments