All-time Quarterback - Send Packing Chords & Tabs

 

Send Packing Chords & Tabs

All-time Quarterback Chords & Tabs

Version: 2 Type: Tab

Send Packing Tab

Intro & middle (repeat 2x):

e|----------------|----------------|----------------|----------------|
B|-7--8--10--7--5-|--5--7--5--0----|--0--0--0--3----|--3--3--3-------|
G|----------------|----------------|----------------|----------------|
D|----------------|----------------|----------------|----------------|
A|----------------|----------------|----------------|----------------|
D|----------------|----------------|----------------|----------------|


This is the tune that appears again and again during the singing (pay attention on the 
during the song; repeat 4x):

e|----------------|----------------|----------------|----------------|
B|-7-----7--7--7--|-5-----5--5--5--|-0-----0--0--0--|-3-----3--3--3--|
G|----------------|----------------|----------------|----------------|
D|----------------|----------------|----------------|----------------|
A|----------------|----------------|----------------|----------------|
D|----------------|----------------|----------------|----------------|


Middle (repeat 2x):

e|----------------|----------------|----------------|----------------|
B|-7--8--10--7--5-|--5--7--5--0----|--0--0--0--3----|--3--3--3-------|
G|----------------|----------------|----------------|----------------|
D|----------------|----------------|----------------|----------------|
A|----------------|----------------|----------------|----------------|
D|----------------|----------------|----------------|----------------|


Repeat 2x:
[ Tab from: http://www.guitartabs.cc/tabs/a/all_time_quarterback/send_packing_tab_ver_2.html ]
e|----------------|----------------|----------------|----------------|
B|-7-----7--7--7--|-5-----5--5--5--|-0-----0--0--0--|-3-----3--3--3--|
G|----------------|----------------|----------------|----------------|
D|----------------|----------------|----------------|----------------|
A|----------------|----------------|----------------|----------------|
D|----------------|----------------|----------------|----------------|


Middle (repeat 2x):

e|----------------|----------------|----------------|----------------|
B|-7--8--10--7--5-|--5--7--5--0----|--0--0--0--3----|--3--3--3-------|
G|----------------|----------------|----------------|----------------|
D|----------------|----------------|----------------|----------------|
A|----------------|----------------|----------------|----------------|
D|----------------|----------------|----------------|----------------|


End (repeat 2x):

e|----------------|----------------|----------------|----------------|
B|-7-----7--7--7--|-5-----5--5--5--|-0-----0--0--0--|-3---3--3--3--7-|
G|----------------|----------------|----------------|----------------|
D|----------------|----------------|----------------|----------------|
A|----------------|----------------|----------------|----------------|
D|----------------|----------------|----------------|----------------|


The tabs were done on an acoustic guitar, so it doesn't have that...er... "electric" 
But it still sounds great.
Hope you'll find this helpful!

By LeBouquote (All rights reserved.)