All Time Low - Hello Brooklyn Chords & Tabs

 

Hello Brooklyn Chords & Tabs

All Time Low Chords & Tabs

Version: 1 Type: Bass Tab 0 ratings
1 star 2 stars 3 stars 4 stars 5 stars
comments

Hello Brooklyn Bass Tab

-----------------------------------------------------------------
Hello Brooklyn by All Time Low
-----------------------------------------------------------------

I'm sure this is NOT 100% correct, but I figured I'd submit it anyway as I couldn't find 
a tab on here for this song. This is my first tab.

Tuning: Standard

~ = let the note ring



Intro/Verse 1
G|------------------|
D|------------------|
A|-22-------00------|    x3
E|-----00-------22--|

G|------------------------------------------|
D|------------------------------------------|
A|-22222222-------------00000000------------|
E|-----------00000000-------------22222222--|

G|-----------------------------------------|
D|-----------------------------------------|
A|-22222222-------------0000000--55555555--|
E|-----------00000000----------------------|


Chorus 1
G|------------------------------------------|
D|------------------------------------------|
A|-00000000------------22222222--55555555---|    x3
E|-----------00000000-----------------------|

G|-----------------------------|
D|-----------------------------|
A|-00000000------------22--55--|
E|-----------00000000----------|


Pre-Verse (Whoa, whoa, whoa, oh)

G|------------------------------------------|
D|------------------------------------------|
A|-00000000------------222222222--55555555--|
E|-----------00000000-----------------------|


Verse 2  (This city, was your city)
G|------------------|
D|------------------|
A|-22------00-------|    x2
E|-----00-------22--|

G|-----------------------------------------|
D|-----------------------------------------|
A|-22222222------------00000000------------|
E|-----------00000000------------22222222--|
[ Tab from: http://www.guitartabs.cc/tabs/a/all_time_low/hello_brooklyn_btab.html ]
G|----------------------------------------|
D|----------------------------------------|
A|-22222222------------0000000--55555555--|
E|-----------00000000---------------------|


Chorus 2
G|------------------------------------------|
D|------------------------------------------|
A|-00000000------------222222222--55555555--|   x4
E|-----------00000000-----------------------|



Bridge (Kiss it all goodbye)
G|-----------------------------------------|
D|-----------------------------------------|
A|---------------------55555555------------|
E|-22222222--00000000------------00000000--|

G|---------------------------------------|
D|---------------------------------------|
A|---------------------5555555555555555--|
E|-22222222--00000000--------------------|

G|-----------------------------------------|
D|-----------------------------------------|
A|---------------------55555555------------|
E|-22222222--00000000------------00000000--|

G|------------------------|
D|------------------------|
A|---------------------5~-|
E|-22222222--00000000-----|


Chorus 3
G|------------------|
D|------------------|
A|-00------22--55---|
E|-----00-----------|

G|------------------------------|
D|------------------------------|
A|-00------22222222--55555555---|
E|-----00-----------------------|

G|-------------------------------------------|
D|-------------------------------------------|
A|-00000000------------222222222--55555555---|    x2
E|-----------00000000------------------------|


Outro (London, Tokyo, Boston, Frisco)
G|-------------------------------------------|
D|-------------------------------------------|
A|-00000000------------222222222--55555555---|    x3
E|-----------00000000------------------------|

G|---------------------------------|
D|---------------------------------|
A|-00000000------------22--55--0~--|
E|-----------00000000--------------|



And that's it! I hope it helped even if it's not totally accurate!
Comments