All That Remains - This Darkened Heart Chords & Tabs

 

This Darkened Heart Chords & Tabs

All That Remains Chords & Tabs

Version: 4 Type: Tab 0 ratings
1 star 2 stars 3 stars 4 stars 5 stars
comments

This Darkened Heart Tab

   
Tabbed by The Reverand McFaul
darthmcfaul@yahoo.ca

All That Remains
This Darkened Heart
From the album "This Darkened Heart"

      p - pull off 
      b - bend string up
      r - release bend
      / - slide up
       - slide down
      v - vibrato (sometimes written as ~)
      t - right hand tap
      x - play \'note\' with heavy damping
~   = Vibrato (Or With Your Finger)
^   = Bend (Push The Strings Up Or Down)
/   = Slide Up
\\   = Slide Down
H   = Hammer On
P   = Pull Off
_   = Let Ring
>   = Pick Slide 
P.M.= Palm Muted
#   = Harmonics


Tuning - D G C F A D

All That Remains are masters of right hand (picking) technique.
Some parts require lots of practice to get up to speed.

Intro
Gtrs I, II 
||-------------------------------|-------------------------------|
||o------------------------------|-------------------------------|
||-------------------------------|-------------------------------|
||-------------------------------|-------------------------------|
||o-----7-6-------10-9-----6h7---|------7-6-------10-9-----6h7---|
||--0-0------0-0-------0-0-------|--0-0------0-0-------0-0-------|
PM  - -      - -       - -          - -      - -       - -
                                                                  x2
|--------------------------------|--------------------------------||
|--------------------------------|-------------------------------o||
|--------------------------------|--------------------------------||
|------------------------------5-|--------------------------------||
|------5---4---2---4---5---4---5-|-----5---4---2---4---5--3/5\3--o||
|--2-2---2---2---2---2---2---2-3-|-2-2---2---2---2---2----1/3\1---||
PM - -   -   -   -   -   -   -     - -   -   -   -   -
 
Verse
Gtrs I, II                                                                       
||---------------------------------|
||o--------------------------------|
||---------------------------------|
||---------9-8-5-4--------4-5/10---|
||o-2------7-6-3-2--------2-3/8--2-|
||--0-0-0--7-6-3-2---0-0--2-3/8--0-|
PM    - -            - -             
                                              x2
|----------------------------------------------||
|---------------------------------------------o||
|----------------------------------------------||
|-------9-8-5----------------------------------||
|-------7-6-3--7-----5-----7---8-----5----5h7-o||
|--0-0--7-6-3----0-0---0-0---0---0-0---0-0-----||
   - -           - -   - -   -   - -   - -

Pre-Chorus
Gtr I                                                                   x2
||----------------------------------------------------------------------||
||o--------------------------------------------------------------------o||
||----------------------------------------------------------------------||
||----------------------------------------------------------------------||
||o-7--6--7-7--6--7-7--6--7-7--6--7-7--6--7-7--6--7-7--6--7-10-9-7-6---o||
||---00-00-0-00-00-0-33-33-3-33-33-3-55-55-5-55-55-5-77-77-7--7-7-7-7---|| 
||PM -- -- - -- -- - -- -- - -- -- - -- -- - -- -- - -- -- -  - - - -
||
||Gtr II (let ring)
||----------------------------------------------------------------------||
||o--------------------------------------------------------------------o||
||----------------------------------------------------------------------||
||--2------(2)------5------(5)------7------(7)------9------(9)----------||
||o-2------(2)------5------(5)------7------(7)------9------(9)---------o||
||--0------(0)------3------(3)------5------(5)------7------(7)----------||


Chorus
Gtr I                                                                   x2
||----------------------------------------------------------------------||
||o--------------------------------------------------------------------o||
||----------------------------------------------------------------------||
||----------------------------------------------------------------------||
||o-7--6--7-7--6--7-7--6--7-7--6--7-7--6--7-7--6--7-7--6--7-10-9-7-6---o||
||---00-00-0-00-00-0-33-33-3-33-33-3-55-55-5-55-55-5-77-77-7--7-7-7-7---|| 
||PM -- -- - -- -- - -- -- - -- -- - -- -- - -- -- - -- -- -  - - - -
||
||Gtr II
||----------------------------------------------------------------------||
||o--------------------------------------------------------------------o||
||----------------------------------------------------------------------||
||--5--4--5-5--4--5-5--4--5-5--4--5-5--4--5-5--4--5-5--4--5--9-7-6-7----||
||o--------------------------------------------------------------------o||
||---00-00-0-00-00-0-33-33-3-33-33-3-55-55-5-55-55-5-77-77-7--7-7-7-7---|| 
|PM  -- -- - -- -- - -- -- - -- -- - -- -- - -- -- - -- -- -  - - - -


[ Tab from: http://www.guitartabs.cc/tabs/a/all_that_remains/this_darkened_heart_tab_ver_4.html ]
Gtrs I, II 
||-------------------------------|-------------------------------|
||o------------------------------|-------------------------------|
||-------------------------------|-------------------------------|
||-------------------------------|-------------------------------|
||o-----7-6-------10-9-----6h7---|------7-6-------10-9-----6h7---|
||--0-0------0-0-------0-0-------|--0-0------0-0-------0-0-------|
PM  - -      - -       - -          - -      - -       - -
                                                                  x2
|--------------------------------|--------------------------------||
|--------------------------------|-------------------------------o||
|--------------------------------|--------------------------------||
|------------------------------5-|--------------------------------||
|------5---4---2---4---5---4---5-|-----5---4---2---4---5--3/5\3--o||
|--2-2---2---2---2---2---2---2-3-|-2-2---2---2---2---2----1/3\1---||
PM - -   -   -   -   -   -   -     - -   -   -   -   -
 
Verse
Gtrs I, II                                                                       
||---------------------------------|
||o--------------------------------|
||---------------------------------|
||---------9-8-5-4--------4-5/10---|
||o-2------7-6-3-2--------2-3/8--2-|
||--0-0-0--7-6-3-2---0-0--2-3/8--0-|
PM    - -            - -             
                                              x2
|----------------------------------------------||
|---------------------------------------------o||
|----------------------------------------------||
|-------9-8-5----------------------------------||
|-------7-6-3--7-----5-----7---8-----5----5h7-o||
|--0-0--7-6-3----0-0---0-0---0---0-0---0-0-----||
   - -           - -   - -   -   - -   - -

Pre-Chorus
Gtr I                                                                   x2
||----------------------------------------------------------------------||
||o--------------------------------------------------------------------o||
||----------------------------------------------------------------------||
||----------------------------------------------------------------------||
||o-7--6--7-7--6--7-7--6--7-7--6--7-7--6--7-7--6--7-7--6--7-10-9-7-6---o||
||---00-00-0-00-00-0-33-33-3-33-33-3-55-55-5-55-55-5-77-77-7--7-7-7-7---|| 
||PM -- -- - -- -- - -- -- - -- -- - -- -- - -- -- - -- -- -  - - - -
||
||Gtr II (let ring)
||----------------------------------------------------------------------||
||o--------------------------------------------------------------------o||
||----------------------------------------------------------------------||
||--2------(2)------5------(5)------7------(7)------9------(9)----------||
||o-2------(2)------5------(5)------7------(7)------9------(9)---------o||
||--0------(0)------3------(3)------5------(5)------7------(7)----------||


Chorus
Gtr I                                                                   x2
||----------------------------------------------------------------------||
||o--------------------------------------------------------------------o||
||----------------------------------------------------------------------||
||----------------------------------------------------------------------||
||o-7--6--7-7--6--7-7--6--7-7--6--7-7--6--7-7--6--7-7--6--7-10-9-7-6---o||
||---00-00-0-00-00-0-33-33-3-33-33-3-55-55-5-55-55-5-77-77-7--7-7-7-7---|| 
||PM -- -- - -- -- - -- -- - -- -- - -- -- - -- -- - -- -- -  - - - -
||
||Gtr II
||----------------------------------------------------------------------||
||o--------------------------------------------------------------------o||
||----------------------------------------------------------------------||
||--5--4--5-5--4--5-5--4--5-5--4--5-5--4--5-5--4--5-5--4--5--9-7-6-7----||
||o--------------------------------------------------------------------o||
||---00-00-0-00-00-0-33-33-3-33-33-3-55-55-5-55-55-5-77-77-7--7-7-7-7---|| 
|PM  -- -- - -- -- - -- -- - -- -- - -- -- - -- -- - -- -- -  - - - -

Bridge 
Gtrs I, II                                Repeat          1,3           2,4
||------------------------------------------------|----------|-----------||
||o-----------------------------------------------|---------o|----------o||
||------------------------------------------------|----------|-----------||
||------------------------------------------------|--9-8-5---|--4-5/10---||
||o-----------------------------------------------|--7-6-3--o|--2-3/8---o||
||--000-000-000-000---000-000-000-000-000-000-000-|--7-6-3---|--2-3/8----||
PM  --- --- --- ---   --- --- --- --- --- --- ---


Breakdown
Gtr I 
||---------------------------|--------------------------------------||
||---------------------------|--------------------------------------||
||---------------------------|--------------------------------------||
||---------------------------|--------------------------------------||
||--------2---------------2--|--------2---------------2-------------||
||-000000-0--000000000000-0--|-000000-0--000000000000-0---5/(12)\1--||
PM ------    ------------      ------    ------------

Gtrs I, II
||--------------------------------------------------------------------|
||--------------------------------------------------------------------|
||--------------------------------------------------------------------|
||--------------------------------------------------------------------|
||--------2---------------2---------------2---------------2-----------|
||-000000-0--000000000000-0--------000000-0--000000000000-0--55-33-11-| 
PM ------    ------------          ------    ------------    -- -- --

|---------------------------------------------------------------------|
|---------------------------------------------------------------------|
|---------------------------------------------------------------------|
|---------------------------------------------------------------------|
|---------2---------------2---------------2---------------2-----------|
|--000000-0--000000000000-0--000000000000-0--000000000000-0--55-33-11-| 
PM ------    ------------    ------------    ------------    -- -- --

|---------------------------------------------------------------------|
|---------------------------------------------------------------------|
|---------------------------------------------------------------------|
|---------------------------------------------------------------------|
|---------2---------------2---------------2---------------2-----------|
|--000000-0--000000000000-0--------000000-0--000000000000-0--55-33-11-| 
PM ------    ------------          ------    ------------    -- -- --

|--------------------------------------------------------------------||
|--------------------------------------------------------------------||
|--------------------------------------------------------------------||
|--------------------------------------------------------------------||
|---------2---------------2---------------2---------------2----------||
|--000000-0--000000000000-0--000000000000-0--000000000000-0----------|| 
PM ------    ------------    ------------    ------------        

End.
Comments