All That Remains - This Darkened Heart Chords & Tabs

 

This Darkened Heart Chords & Tabs

All That Remains Chords & Tabs

Version: 2 Type: Tab 0 ratings
1 star 2 stars 3 stars 4 stars 5 stars
comments

This Darkened Heart Tab

   
Song: This Darkened Heart
Artist: All that Remains
Album: This Darkened Heart [v.2]
Tabber: Steven Banks [squall_inside@hotmail.com]
Tuning: D tuning. (D,G, C, F, A, D)

palm mute: ..... (below the measure)
Vibrato: v (below the measure)
hammer on: h (in the measure)
Pull off: p (in the measure)
Slide up: /
Slide down: \
Bend: b
x: mute string

Intro

Both Guitars 
|-------------------------|
|-------------------------|
|-------------------------|
|-------------------------|
|----7-6-----10-9-----7h6-|
|0-0-----0-0------0-0-----| (x2)
 ...     ...     ...
|--------------------|--------------------|
|--------------------|--------------------|
|--------------------|--------------------|
|--------------------|--------------------|
|----5-4-2-4-5-4h5p4-|-----5-4-2-4-5-4h5p3|
|2-2--2-2-2-2--2h3p2-|-2-2--2-2-2-2--2h3p1| (x2)
 ...  . . . .  .....   ...  . . . .  .....
Verse
Part A
Both Guitars
|-------------------------|----------------------------|
|-------------------------|----------------------------|
|-------------------------|----------------------------|
|------9-8-5-4----4-5-10--|-------9--------------------|
|--x-x-7-6-3-2--x-2-3/8---|---x-x-7-6-3--7-5-7-8-5-5h7-|
|0-x-x-7-6-3-2--x-2-3/8-0-|-0-x-x-7-6-3---0-0---0-0----|(x2)
                                          . .   . . 
Part b
Guitar One (New part starts at, "I'll Rise..."
(I took out some of this to make it shorter, so it didn't screw up on the page. Please
forgive me and figure out the full length of this yourself, it just repeats.)
|----------------------------------------------------------------|
|----------------------------------------------------------------|
|----------------------------------------------------------------|
|----------------------------------------------------------------|
|7-x-6-xx-7-7-x-6-xx-7-7-x-6-xx-7-7-x-6-xx-7-7-x-6-xx-7-10-9-7-9-|
|----------------------------------------------------------------| (x2)

Guitar Two
|---------------------------------------------------------------|
|---------------------------------------------------------------|
|---------------------------------------------------------------|
|---------------------------------------------------------------|
|--------------5----------------7-------------9-----------------|
|0-------------3----------------5-------------7-----------------|(x2)

Part C

Guitar One
|----------------------------------------------------------------|
|----------------------------------------------------------------|
|----------------------------------------------------------------|
|----------------------------------------------------------------|
|7-x-6-xx-7-7-x-6-xx-7-7-x-6-xx-7-7-x-6-xx-7-7-x-6-xx-7-10-9-7-9-|
|----------------------------------------------------------------| (x2)

Guitar Two
|---------------------------------------------------------------|
|---------------------------------------------------------------|
|---------------------------------------------------------------|
|5-x-4-xx-5-5-x-4-xx-5-4-x-4-xx-5-5-x-4-xx-5-5-x-4-xx-5-9-7-6-7-|
|---------------------------------------------------------------|
|---------------------------------------------------------------| (x2)


Intro
[ Tab from: http://www.guitartabs.cc/tabs/a/all_that_remains/this_darkened_heart_tab_ver_2.html ]
Both Guitars 
|-------------------------|
|-------------------------|
|-------------------------|
|-------------------------|
|----7-6-----10-9-----7h6-|
|0-0-----0-0------0-0-----| (x2)
 ...     ...     ...
|--------------------|--------------------|
|--------------------|--------------------|
|--------------------|--------------------|
|--------------------|--------------------|
|----5-4-2-4-5-4h5p4-|-----5-4-2-4-5-4h5p3|
|2-2--2-2-2-2--2h3p2-|-2-2--2-2-2-2--2h3p1| (x2)
 ...  . . . .  .....   ...  . . . .  .....
Verse
Part A
Both Guitars
|-------------------------|----------------------------|
|-------------------------|----------------------------|
|-------------------------|----------------------------|
|------9-8-5-4----4-5-10--|-------9--------------------|
|--x-x-7-6-3-2--x-2-3/8---|---x-x-7-6-3--7-5-7-8-5-5h7-|
|0-x-x-7-6-3-2--x-2-3/8-0-|-0-x-x-7-6-3---0-0---0-0----|(x2)
                                          . .   . . 
Part b
Guitar One (New part starts at, "I'll Rise..."
(I took out some of this to make it shorter, so it didn't screw up on the page. Please
forgive me and figure out the full length of this yourself, it just repeats.)
|----------------------------------------------------------------|
|----------------------------------------------------------------|
|----------------------------------------------------------------|
|----------------------------------------------------------------|
|7-x-6-xx-7-7-x-6-xx-7-7-x-6-xx-7-7-x-6-xx-7-7-x-6-xx-7-10-9-7-9-|
|----------------------------------------------------------------| (x2)

Guitar Two
|---------------------------------------------------------------|
|---------------------------------------------------------------|
|---------------------------------------------------------------|
|---------------------------------------------------------------|
|--------------5----------------7-------------9-----------------|
|0-------------3----------------5-------------7-----------------|(x2)

Part C

Guitar One
|----------------------------------------------------------------|
|----------------------------------------------------------------|
|----------------------------------------------------------------|
|----------------------------------------------------------------|
|7-x-6-xx-7-7-x-6-xx-7-7-x-6-xx-7-7-x-6-xx-7-7-x-6-xx-7-10-9-7-9-|
|----------------------------------------------------------------| (x2)

Guitar Two
|---------------------------------------------------------------|
|---------------------------------------------------------------|
|---------------------------------------------------------------|
|5-x-4-xx-5-5-x-4-xx-5-4-x-4-xx-5-5-x-4-xx-5-5-x-4-xx-5-9-7-6-7-|
|---------------------------------------------------------------|
|---------------------------------------------------------------| (x2)

Bridge ("Soul")
Part A
Both Guitars (Some damn heavy palm muting)
|-----------------------------------------------------------|
|-----------------------------------------------------------|
|-----------------------------------------------------------|
|-----------------------9-8-5-------------------------4-5-10|
|-----------------------7-6-3-------------------------2-3/8-|
|0-0-0-0--0-0-0-0-0-0-0-7-6-3--0-0-0-0--0-0-0-0-0-0-0-2-3/8-| (x2)
 ......................        ......................

Part B ("I will not be held down again")

|------------------------|
|------------------------|
|------------------------|
|------------------------|
|------------------------|
|0000000-00000000000000--| (Then Pick Slide)
 ........................

Part C
Both Guitars 
(This part is simplified with tabs so it doesn't take up that much space.
There are actually more open strums then I notated, but if you listen, you can figure it out.)
|---------------------------------------------------------------|
|---------------------------------------------------------------|
|---------------------------------------------------------------|
|---------------------------------------------------------------|
|---------------------------------------------------------------|
|0000000-00000000000000----0000000-00000000000000---3-3-2-2-1-1-| (x4)
 ......................    ....................................
That's it folks.
Comments