All That Remains - Regret Not Chords & Tabs

 

Regret Not Chords & Tabs

All That Remains Chords & Tabs

Version: 2 Type: Tab

Regret Not Tab

   
Song: Regret Not
Artist: All That Remains
Album: This Darkened Heart
Tuning: Standard

Intro (Acoustic)

E-------------------------------------------------|
B-------------------------------------------------|
G-3-3333-3333-333333-555-7-7777-7777-777777-555---| X12
D-3-3333-3333-333333-555-7-7777-7777-777777-555---|
A-1-1111-1111-111111-333-5-5555-5555-555555-333---|
E-------------------------------------------------|

E-----------------------------------------------------------|
B-----------------------------------------------------------|
G-----------------------------------------------------------|
D-8-7-5-7~-8-7-5-----5------------8-7-5-7~-8-7-5-----5-5/3~-|
A----------------7-8---7-7h8p7/5~----------------7-8--------|
E-----------------------------------------------------------|

E-----------------------------------------------------------|
B-8-6-5-6~-8-6-5-----5-5-6-5-3~-8-6-5-6~-8-6-5-----5-5/6~---|
G----------------5-7---------------------------5-7----------|
D-8-7-5-7~-8-7-5-----5-5-7-5-3~-8-7-5-7~-8-7-5-----5-5/7~---|
A----------------7-8---------------------------7-8----------|
E-----------------------------------------------------------|

E-----------------------------------------------------------|
B---------------------------------8-6-5-6~-8-6-5-----5-5/6~-|
G------------------------------------------------5-7--------|
D-8-7-5-7~-8-7-5-----5------------8-7-5-7~-8-7-5-----5-5/7~-|
A----------------7-8---7-7h8p7/5~----------------7-8--------|
E-----------------------------------------------------------|

E-------------------------------------|
B---------------------------3-5-555-3-|
G---------------------------2-2-222-2-|
D-------2-0---0-------------0-0-000-0-|
A-----------3---5-3-1-0---------------|
E-6-5-3-5---------------3-1-----------|

E-------------------------------------------------------|
B-----------------1-3p1-5-----10-15---10-15-------13-3--|
G-------------------------/10-------9----------10----2--|
D-------2-0---0-----------------------------10-------0--|
A-----------3-------------------------------------------|
E-6-5-3-5-------1---------------------------------------|

E-------------------------------------|
B---------------------------3-5-555-3-|
G---------------------------2-2-222-2-|
D-------2-0---0-------------0-0-000-0-|
A-----------3---5-3-1-0---------------|
E-6-5-3-5---------------3-1-----------|

E-------------------------------------------------------|
B-----------------1-3p1-5-----10-15---10-15-------13-3--|
G-------------------------/10-------9----------10----2--|
D-------2-0---0-----------------------------10-------0--|
A-----------3-------------------------------------------|
E-6-5-3-5-------1---------------------------------------|

(Distortion)

E---------------------------------------------------|
B---------------------------------------------------|
G-7-7777-77-5-7-7777-77-5-3-3333-33-2-3-333333-999--| X4
D-7-7777-77-5-7-7777-77-5-3-3333-33-2-3-333333-xxx--|
A-5-5555-55-3-5-5555-55-3-1-1111-11-0-1-111111-777--|
E---------------------------------------------------|
    ....        ....        ....        ......

E----------------------------------|
B----------------------------------|
G----------------------------------| X2
D-777-555-875-875-333-222-555-333--|
A----------------------------------|
E----------------------------------|
[ Tab from: http://www.guitartabs.cc/tabs/a/all_that_remains/regret_not_tab_ver_2.html ]
E----------------------------------|
B----------------------------------|
G-777-999-753-753-222-000-333-222--| X2
D-777-555-875-875-333-222-555-333--|
A----------------------------------|
E----------------------------------|

Solo

E--------------------------------------------------------------------------|
B----------------13-11-10-10h11/8-8h10/6-6h8/5-------------13-17-18b20r----|
G---7/9-10~-9-10----------------------------------------14-----------------|
D-7--------------------------------------------12-14-15--------------------|
A--------------------------------------------------------------------------|
E--------------------------------------------------------------------------|

E----------------20--------------------------------------------------------|
B-17-13-15-18-22----22-17-18p17-15~-17-18-15-17-17-17-18-15-/15-17-20-18---|
G--------------------------------------------------------------------------|
D--------------------------------------------------------------------------|
A--------------------------------------------------------------------------|
E--------------------------------------------------------------------------|

E----------------------------------------|
B-11-13-17-15-15-17-20-18-11-13-17-15----|
G----------------------------------------|
D-------------15-17-20-19-12-14-17-15~---|
A----------------------------------------|
E----------------------------------------|


Outro (Acoustic)

E-------------------------------------------------|
B-------------------------------------------------|
G-3-3333-3333-333333-555-7-7777-7777-777777-555---| X8
D-3-3333-3333-333333-555-7-7777-7777-777777-555---|
A-1-1111-1111-111111-333-5-5555-5555-555555-333---|
E-------------------------------------------------|

E-----------------------------------------------------------|
B---------------------------------8-6-5-6~-8-6-5-----5-5/6~-|
G------------------------------------------------5-7--------|
D-8-7-5-7~-8-7-5-----5------------8-7-5-7~-8-7-5-----5-5/7~-|
A----------------7-8---7-7h8p7/5~----------------7-8--------|
E-----------------------------------------------------------|

E-------------------------------------|
B---------------------------3-5-555-3-|
G---------------------------2-2-222-2-|
D-------2-0---0-------------0-0-000-0-|
A-----------3---5-3-1-0---------------|
E-6-5-3-5---------------3-1-----------|

E-------------------------------------------------------|
B-----------------1-3p1-5-----10-15---10-15-------13-3--|
G-------------------------/10-------9----------10----2--|
D-------2-0---0-----------------------------10-------0--|
A-----------3-------------------------------------------|
E-6-5-3-5-------1---------------------------------------|


E-------------------------------------|
B---------------------------3-5-555-3-|
G---------------------------2-2-222-2-|
D-------2-0---0-------------0-0-000-0-|
A-----------3---5-3-1-0---------------|
E-6-5-3-5---------------3-1-----------|

E-------------------------------------------------------|
B-----------------1-3p1-5-----10-15---10-15-------13-3--|
G-------------------------/10-------9----------10----2--|
D-------2-0---0-----------------------------10-------0--|
A-----------3-------------------------------------------|
E-6-5-3-5-------1---------------------------------------|

~-let ring
h-hit or tap
/-slide up or down
p-pull off
.-palm mute
x-mute
b-bend
r-release bend